Artist: Bullets and Octane
Song: Save Me Sorrow
Tuning: Standard (EADGBe)
Tabber: Dan Fallows (Sick of you)

I'm suprised this hasn't already been done :s


Hit a few times before intro, you'll know when to play it
e|------|
B|------|
G|--9~--|
D|--9~--|
A|--7~--|
E|------|

Intro
e|--------------------------------------------|
B|--------------------------------------------|
G|--7777--8--9-----------------9--7-----------|
D|--7777--8--9--5--7--8--7--5--9--7--8--7--5--| x2
A|--5555--6--7--5--7--8--7--5--7--5--8--7--5--|
E|--------------3--5--6--5--3--------6--5--3--|

Intro Cont..
e|--------------------------------|
B|--------------------------------|
G|--------------------77777-8/9~--|
D|--2--5--7--8--7--5--77777-8/9~--|
A|--2--5--7--8--7--5--55555-6/7~--|
E|--0--3--5--6--5--3--------------|

Verse
e|----------------------------------------------------------|
B|----------------------------------------------------------|
G|------------------------777777----------------------------|
D|--22222--4--5555555555--777777--77777--1010101010--77777--|
A|--22222--4--5555555555--555555--77777--1010101010--77777--|
E|--00000--2--3333333333----------55555---8-8-8-8-8--55555--|
    xxxxx  x  xxxxxxxxxx

Verse Cont...
e|---------------------|
B|---------------------|
G|---------------------|
D|--10--5--7--8--7--5--| 
A|--10--5--7--8--7--5--|
E|---8--3--5--6--5--3--|

Chorus
e|------------------------------------|
B|------------------------------------|
G|--99999---------77777---------------|
D|--99999--55555--77777--777--101010--| x2
A|--77777--55555--55555--777--101010--|
E|---------33333---------555---8-8-8--|

Verse 2
e|---------------------------------------------------|
B|---------------------------------------------------|
G|------------------------777777---------------------|
D|--22222--4--5555555555--777777--77777--1010101010--|
A|--22222--4--5555555555--555555--77777--1010101010--|
E|--00000--2--3333333333----------55555---8-8-8-8-8--|
    xxxxx  x  xxxxxxxxxx

Verse Cont...
e|---------------------|
B|---------------------|
G|---------------------|
D|--10--5--7--8--7--5--| 
A|--10--5--7--8--7--5--|
E|---8--3--5--6--5--3--|


Chorus
e|------------------------------------|
B|------------------------------------|
G|--99999---------77777---------------|
D|--99999--55555--77777--777--101010--| x2
A|--77777--55555--55555--777--101010--|
E|---------33333---------555---8-8-8--|

---Working on Solo---

Nice heavy part after solo
e|---------------------------|---------------|-------------------------|
B|---------------------------|---------------|-------------------------|
G|---------------9-7---------|---------------|--777777--7777777-7-8-9--|
D|--2-5-7-8-7-5--9-7--8-7-5--|--2-5-7-8-7-5--|--777777--7777777-7-8-9--|
A|--2-5-7-8-7-5--7-5--8-7-5--|--2-5-7-8-7-5--|--555555--5555555-5-6-7--|
E|--0-3-5-6-5-3-------6-5-3--|--0-3-5-6-5-3--|-------------------------|

End Chorus
e|-----------------------------|------------------------------------|
B|-----------------------------|------------------------------------|
G|---------77777---------------|--99999---------77777---------------|
D|--55555--77777--777--101010--|--99999--55555--77777--777--101010--|
A|--55555--55555--777--101010--|--77777--55555--55555--777--101010--|
E|--33333---------555---8-8-8--|---------33333---------555---8-8-8--|

End with
e|------------------------|
B|------------------------|
G|--------------------9\--|
D|--2--5--7--8--7--5--9\--|
A|--2--5--7--8--7--5--7\--|
E|--0--3--5--6--5--3------|
Show more