Save Me Sorrow - G Maj
Standard Tuning 

Intro
         E               
G|----------------|---------------|---------------|---------------|
D|----------------|---------------|---------------|---------------|
A|----------------|---------------|---------------|---------------|
E|--0--3--5--6-5-3|-0--3--5--6-5-3|-0--3--5--6-5-3|-0--3--5--6-5-3|
         
G|----------------|---------------|------------------|
D|----------------|---------------|------------------|
A|----------------|---------------|------------------|
E|--0--3--5--6-5-3|-0--3--5--6-5-3|-0--3--5--6-5-3-0-|

Pre-Verse
              C                       G                     E
G|-----------------------|--------------------------|----------------|
D|-----------------------|--------------------------|----------------|
A|--5--0--5--0--5--0-5-6-|----------------7--5------|----------------|
E|-----------------------|-0--3--5--6-5-3------6-5-3|-0--3--5--6-5-3-|

G|---------------------|--------------------------|----------------|
D|---------------------|--------------------------|----------------|
A|--5--0--5--0--5--5-6-|----------------7--5------|----------------|
E|---------------------|-0--3--5--6-5-3------6-5-3|-0--3--5--6-5-3-|

G|----------------------|
D|----------------------|
A|--5--0--5--0--5-0-5-6-|
E|----------------------|

Verse
      E          G           D         A          C
G|----------|----------|----------|----------|----------|
D|----------|----------|----------|----------|----------|
A|-7>-(x16)-|----------|-5>-(x16)-|-0>-(x16)-|-3>-(x16)-|
E|----------|-3>-(x16)-|----------|----------|----------|

G|---------|---------|---------|---------|---------|
D|---------|---------|---------|---------|---------|
A|---------|---------|-5-(x16)-|-0-(x16)-|-3-(x16)-|
E|-0-(x16)-|-3-(x16)-|---------|---------|---------|

         A                E
G|----------------|----------------|
D|----------------|----------------|
A|0-0-0-0-0-0-0-0-|----------------|
E|----------------|5--3--5--6-5-3-0|

Chorus
                                                                    2nd
G|---------------|----------------|---------------|----------------|---|
D|---------------|----------------|---------------|----------------|---|
A|---------------|----------------|5--5--5--5-5-5-|--------3--3--3-|---| X2
E|-0--0--0--0-0-0|-3--3--3--3-3-3-|---------------|5--5--5---------|-0-|

Verse
      E          G          D          A              C
G|----------|----------|----------|----------|---------5-5-5-5|
D|----------|----------|----------|----------|----------------|
A|-7>-(x16)-|----------|-5>-(x16)-|-0>-(x16)-|-3-3-3-3/-------|
E|----------|-3>-(x16)-|----------|----------|----------------|

G|----------|----------|----------|-----------------|----------------|
D|----------|----------|----------|-----------------|----------------|
A|----------|----------|-5>-(x16)-|-0-0-0-0-0-0-0-0-|----------------|
E|-0>-(x16)-|-3>-(x16)-|----------|-----------------|5--3--5--6-5-3-0|

                        
Chorus
                                                                    
G|---------------|----------------|---------------|----------------|
D|---------------|----------------|---------------|----------------|
A|---------------|----------------|5--5--5--5-5-5-|--------3--3--3-| X2
E|-0--0--0--0-0-0|-3--3--3--3-3-3-|---------------|5--5--5---------|

Guitar Solo/Bridge

G|----------------|
D|----------------|
A|----------------| Repeat Until Pre-Verse
E|--0--3--5--6-5-3|

Pre-Verse
                                              /--------X2-------\/--2nd--\
G|---------------------------|----------------|-----------------|--------|
D|---------------------------|----------------|-----------------|--------|
A|-----------------7--5------|----------------|-5--0--5--0--5--0|-0-5-7\-|
E|-5--3--5--6-5-3-------6-5-3|-0--3--5--6-5-3-|-----------------|--------|
                                                                      sl.

Chorus
                                                                    
G|----------------|---------------|----------------|
D|----------------|---------------|----------------|
A|----------------|5--5--5--5-5-5-|--------3--3--3-| 
E|-3--3--3--3-3-3-|---------------|5--5--5---------|

G|---------------|----------------|---------------|----------------|
D|---------------|----------------|---------------|----------------|
A|---------------|----------------|5--5--5--5-5-5-|--------3--3--3-| x3 
E|-0--0--0--0-0-0|-3--3--3--3-3-3-|---------------|5--5--5---------|

End

G|-------------------|
D|-------------------|
A|-----------------7\| 
E|--0--3--5--6-5-3---|

Tabbed by Jon Gangloff
Show more