Assalamualaikum….

Band    : Bunkface
Song    : Situasi
Album   : Lesson of the Season  
Tuning  : Standard

verse 1
e|-----------------------------|
B|-----------------------------|
G|-3-3-------------------------|
D|-3-3----3-3----4-4----6-6----|  X3
A|-1-1----3-3----4-4----6-6----|
E|--------1-1----2-2----4-4----|

e|-----------------------------|
B|-----------------------------|
G|-6-6-------------------------|
D|-6-6----6-6----4-4----6-6----|  
A|-4-4----6-6----4-4----6-6----|
E|--------4-4----2-2----4-4----|

pre-chorus
e|----------------------------------------|
B|----------------------------------------|
G|--------3~------------------------------|
D|-4~-----3~-----4~-----6-6-6-6-6-6-6-6---|
A|-4~-----1~-----4~-----6-6-6-6-6-6-6-6---|
E|-2~------------2~-----4-4-4-4-4-4-4-4---|
                        . . . . . . . .

chorus (main full chord pn ok gak nie…)
   X16    X16   X16    X8    X8
e|------------------------------|
B|------------------------------|
G|-6----------------------------|
D|-6------6------8------4----6--|    X2     
A|-4------6------8------4----6--|
E|--------4------6------2----4--|

Lead in chorus repeat 2X 
e|-9---9---9---9---|-8---8---6-6-8---|
B|---9---9---9---9-|--9---9-------9--|

e|-6---6---8-8-6---|-6---6---8---8---|
B|---6---6-------6-|---7---7---9---9-|

post-chorus
rhythm stop kt G#
lead main nie…
e|-------------------------------|
B|-------------------------------|
G|-8~--6~--5~--------------------|
D|-x~--x~--x~--6~---------8\-----|
A|-6~--4~--3~--x~---------x\-----|
E|-------------4~---------6\-----|

verse 2 (rhythm sama cm verse 1)
lead ader msuk sket..lps “kerna diri ini tak daya lagi..”
e|--8h9-8-----------------------------------|
B|--------9-9/11~----9~----7~----9~---------|
G|------------------------------------------|

Play    pre-chorus
        chorus

solo
   Lead
e|-----------------------------------------------------|
B|-----------------------------------------------------|
G|-11-11-11-11\-10-10-10-10/-15-15-15-15\-13-13-13-13\-|
D|--x--x--x--x\--x--x--x--x/--x--x--x--x\--x--x--x--x\-|
A|--9--9--9--9\--8--8--8--8/-13-13-13-13\-11-11-11-11\-|
E|-----------------------------------------------------|
 |
 | Rhythm
 |  X8                        X8 
e|-----------------------------------------------------|
B|-----------------------------------------------------|
G|-----------------------------------------------------|
D|--4-------------------------6------------------------|
A|--4-------------------------6------------------------|
E|--2-------------------------4------------------------|

(continued…
e|-----------------------------------------------------|
B|-----------------------------------------------------|
G|-11-11-11-11/-13-13-13-13/-15-15-15-15/-17-17-17-17/-|
D|--x--x--x--x/--x--x--x--x/--x--x--x—-x/--x--x--x--x/-|
A|--9--9--9--9/-11-11-11-11/-13-13-13-13/-15-15-15-15/-|
E|-----------------------------------------------------|
 |
 |
 |  X8                        X8 
e|-----------------------------------------------------|
B|-----------------------------------------------------|
G|-----------------------------------------------------|
D|--4-------------------------6------------------------|
A|--4-------------------------6------------------------|
E|--2-------------------------4------------------------|

(continued…
   Lead (msuk skali ngan chord 1st chorus)
e|------|
B|------|
G|-18~--|
D|--x~--|
A|-16~--|
E|------|

Play chorus

outro
  “whoa-oh….    Oh…” 
e|------------------------------|
B|------------------------------|
G|--------------6~--------------|
D|-6~--6~-------6~--------------|
A|-3~--3~-------4~--------------|
E|-4~--4~-----------------------|

xxxxxxxxxxxxxxxxxxxxxxxxxxxxxxxxxxxxxxxxxxxxxxxxxxxxxxxxxxx
k…any comments/requests please contact me..
zar_of_filth92@yahoo.com
for myspace users u can find me using my email..

Assalamualaikum….
Show more