ARTIST - BUNKFACE
SONG   - SITUASI
ALBUM  - LESSON OF THE SEASON
TUNING - STANDARD(EADG)
TAB BY - mattmuse41







VERSE 1
G|----------------------------|
D|----------------------------|   X2
A|--1-1-----------------------|
E|-------1-1---2-2---4-4------|





PLAY THIS BEFORE CHORUS
G|----------------------------------------|
D|----------------------------------------|
A|--------1~------------------------------|
E|--2~----------2~----4-4-4-4-4-4-4-4-----|






CHORUS (PLAY X2)
G|----------------------------------------------------|
D|--11-11-11-11-11-11-11-11-11-11-11-11-11-11-11-11---|
A|----------------------------------------------------|
E|----------------------------------------------------|


(continued)
G|----------------------------------------------------|
D|----------------------------------------------------|
A|--11-11-11-11-11-11-11-11-11-11-11-11-11-11-11-11---|
E|----------------------------------------------------|


(continued)
G|----------------------------------------------------|
D|----------------------------------------------------|
A|--13-13-13-13-13-13-13-13-13-13-13-13-13-13-13-13---|
E|----------------------------------------------------|


(continued)
G|----------------------------------------------------|
D|----------------------------------------------------|
A|--9-9-9-9-9-9-9-9--11-11-11-11-11-11-11-11----------|
E|----------------------------------------------------|







VERSE 2
G|----------------------------|
D|----------------------------|   X4
A|--1-1-----------------------|
E|-------1-1---2-2---4-4------|







AGAIN PLAY THIS BEFORE CHORUS
G|----------------------------------------|
D|----------------------------------------|
A|--------1~------------------------------|
E|--2~----------2~----4-4-4-4-4-4-4-4-----|







AGAIN PLAY CHORUS (PLAY X2)
G|----------------------------------------------------|
D|--11-11-11-11-11-11-11-11-11-11-11-11-11-11-11-11---|
A|----------------------------------------------------|
E|----------------------------------------------------|


(continued)
G|----------------------------------------------------|
D|----------------------------------------------------|
A|--11-11-11-11-11-11-11-11-11-11-11-11-11-11-11-11---|
E|----------------------------------------------------|


(continued)
G|----------------------------------------------------|
D|----------------------------------------------------|
A|--13-13-13-13-13-13-13-13-13-13-13-13-13-13-13-13---|
E|----------------------------------------------------|


(continued)
G|----------------------------------------------------|
D|----------------------------------------------------|
A|--9-9-9-9-9-9-9-9--11-11-11-11-11-11-11-11----------|
E|----------------------------------------------------|






PLAY THIS WHEN GUITAR SOLO
G|-------------------------|
D|-------------------------|
A|-------------------------|  X2
E|--2-2-2-2---4-4-4-4------|


(continued)
G|------------------------------------------|
D|------------------------------------------|
A|------------------------------------------|
E|--2-2-2-2-2-2-2-2---4-4-4-4-4-4-4-4-2~----|





ONLY GUITAR






BEFORE PLAY THE CHORUS
G|---------------------------------------|
D|---------------------------------------|
A|---------------------------------------|
E|--2-2-2-2-2-2-2-2--4-4-4-4-4-4-4-4-----|






FOR THE 3RD TIME PLAY CHORUS (PLAY X2)
G|---------------------------------------------------|
D|--11-11-11-11-11-11-11-11-11-11-11-11-11-11-11-11--|
A|---------------------------------------------------|
E|---------------------------------------------------|


(continued)
G|----------------------------------------------------|
D|----------------------------------------------------|
A|--11-11-11-11-11-11-11-11-11-11-11-11-11-11-11-11---|
E|----------------------------------------------------|


(continued)
G|----------------------------------------------------|
D|----------------------------------------------------|
A|--13-13-13-13-13-13-13-13-13-13-13-13-13-13-13-13---|
E|----------------------------------------------------|


(continued)
G|----------------------------------------------------|
D|----------------------------------------------------|
A|--9-9-9-9-9-9-9-9--11-11-11-11-11-11-11-11----------|
E|----------------------------------------------------|




FINISH ON THIS
G|----------------|
D|--11~-----------|
A|----------------|
E|----------------|





FINISH....
Show more