• Song:

    La Luna En Ti

  • Artist:

    Burdel King

( Tabscripción del tema en acústico, tocado con quintas)

(intro)
Fa- do- sol- #la- fa- do-#la-sol

1.-----------------------------------------------|
2.-----------1-1---------------------------------|
3.-------0-2-----3-2-0-------------3---3-2-0-----|
4.-3-3-3---------------0-0---0-2-3---------------|
5.-----------------------------------------------|
6.-----------------------------------------------|

1.----------------------------------|
2.---------------1-1-3-5-5(6)-3-1-3-|
3.-----------0-2--------------------|
4.-3---3-3-3------------------------|
5.----------------------------------|
6.----------------------------------|

Fa           do                sol
Cuando al amor se le muda la piel
     #la              fa
A la rutina la cara se ve
          Do                 #la
Si una sonrisa se viste de hiel
           sol
Es muy mal asunto, amor.

Fa                   do
Te prometo que cada beso
     La                 #la   sol
Un contrato indefinido será
Fa              do
Quiero beber de tus miradas
#la                    do
Quiero envejecer junto a ti.

Fa       #la       la         #la         la
Bajaré hasta el mismo infierno para hacerte feliz
    #la                 do
Seré el sol en tu invierno. Seré la luna en ti.

Fa- do- sol- #la- fa- do--------------------------|la-sol
1.------------------------------------------------|
2.-----------1-1----------------------------------|
3.-------0-2-----3-2-0-------------3---3-2-0------|
4.-3-3-3---------------0-0---0-2-3----------------|
5.------------------------------------------------|
6.------------------------------------------------|

1.----------------------------------|
2.---------------1-1-3-5-5(6)-3-1-3-|
3.-----------0-2--------------------|
4.-3---3-3-3------------------------|
5.----------------------------------|
6.----------------------------------|
Fa         do                        sol
Cuando el silencio se acuesta entre dos
          #la                 fa
Nacen fronteras sobre el edredón.
            Do                   #la
Cuando a los besos se les ve la piel
          sol
Hay que volver al ayer.



 Fa                    do
Hoy la luna me ha contado
      La                  #la   sol
que duermes siempre bajo su luz,
Fa                      do
su vestido me ha prestado,
#la             do
voy a ser la luna en ti.

Fa      #la        la             #la         la
Bajaré hasta el mismo infierno, para hacerte feliz,
      #la            do
seré sol en tu invierno, seré la luna en ti.

Fa       #la         la       #la            la
Volaré hasta el fin del mundo, para traer su luz,
        #la          do
no importa si me hundo, ¡Mi brújula eres tú!

(solo)
1.---------------------------------------|
2.---------------------------------------|
3.--------12-14-14(16)-14---12----12-----|
4.-/16-16----------------------16----14--|
5.---------------------------------------|
6.---------------------------------------|

1.----------------------------------------|
2.----------------------------------------|
3.----------------------------------------|
4.-14-12-14-14(15)(15)14-12-14-12---14-12-|
5.----------------------------------------|
6.----------------------------------------|

1.----------------------------------------|
2.----------------------------------------|
3.--------------------------12---14-12----|
4.-14------------12---14-16------------14-|
5.----14---14-16--------------------------|
6.----------------------------------------|




1.--------------------------|
2.----------18-17---18-20---|
3.-17-19-21-----------------|
4.--------------------------|
5.--------------------------|
6.--------------------------|


Fa    #la        la         #la              la
Soñaré besos que he olvidado en un rincón de ti
       #la          do
Tu alma es tu despensa quiero comer de ti

Fa      #la         la      #la           la
Volaré hasta el fin del mundo, para traer su luz,
     #la            do
no importa si me hundo, ¡Mi brújula eres tú!

Fa     #la         la          #la             la
Bajaré hasta el mismo infierno, para hacerte feliz
      #la             do
seré sol en tu invierno, seré la luna en ti.

Fa- do- sol- #la- fa- do--------------------------|la-sol
1.------------------------------------------------|
2.-----------1-1----------------------------------|
3.-------0-2-----3-2-0-------------3---3-2-0------|
4.-3-3-3---------------0-0---0-2-3----------------|
5.------------------------------------------------|
6.------------------------------------------------|

1.----------------------------------|
2.---------------1-1-3-5-5(6)-3-1-3-|
3.-----------0-2--------------------|
4.-3---3-3-3------------------------|
5.----------------------------------|
6.----------------------------------|
www.burdelking.es


                        Perchintabs.blogspot.com
Show more