Intro: Guitar 1; X8
|-------------------------------------------------------|
|-------------------------------------------------------|
|-------------------------------------------------------|
|-----------------------5-5-5-5-------------------------|
|-2-2-2-0-0-0-0-0-0-0-0-3-3-3-3-------------------------|
|-5-5-5-4-4-4-4-3-3-3-3---------------------------------|

* Palm Muted *

Intro: Guitar 2: 6X come in after G1 plays intro riff 2X
|-------------------------------------------------------|
|-------------------------------------------------------|
|-4-4-4-2-2-2-2-2-2-2-2-0-0-0-0-------------------------|
|-5-5-5-4-4-4-4-3-3-3-3-2-2-2-2-------------------------|
|-------------------------------------------------------|
|-------------------------------------------------------|

*Palm Muted*

Verse 1: Guitar 1:
|-------------------------------------------------------|
|-------------------------------------------------------|
|-------------------------------------------------------|
|-5-5-0-2-3-5-------------------------------------------|
|-5-5-0-2-3-3-------------------------------------------|
|-5-4-0-2-3---------------------------------------------|

Verse 1: Guitar 2
|-------------------------------------------------------|
|-------------------------------------------------------|
|-------------------------------------------------------|
|-5-5-0-2-3-5-------------------------------------------|
|-5-5-0-2-3-3-------------------------------------------|
|-5-4-0-2-3---------------------------------------------|


Chorus: Both Guitars
|------------------|-------------------------------------------------|
|------------------|-------------------------------------------------|
|------------------|-7-5--4-5--Play this part twice on each chorus---|
|-7-7-7-7-7-7-7-7-7|-x-x--x-x----------------------------------------|
|-5-5-5-5-5-5-5-5-5|-5-3--3-3----------------------------------------|
|------------------|-------------------------------------------------|


Verse 2: Guitar 1
|-------------------------------------------------------|
|-------------------------------------------------------|
|-------------------------------------------------------|
|-5-5-0-2-3-5-------------------------------------------|
|-5-5-0-2-3-3-------------------------------------------|
|-5-4-0-2-3---------------------------------------------|

Verse 2: Guitar 2
|----------------------------------------------------------|
|----------------------------------------------------------|
|----------------------------------------------------------|
|-9b10r9-7-7b8r7-5-----------------------------------------|
|-----------------7-5--------------------------------------|
|----------------------------------------------------------|
This is Wah Pedaled.

Chorus: Both Guitars
|------------------|-------------------------------------------------|
|------------------|-------------------------------------------------|
|------------------|-7-5--4-5--Play this part twice on each chorus---|
|-7-7-7-7-7-7-7-7-7|-x-x--x-x----------------------------------------|
|-5-5-5-5-5-5-5-5-5|-5-3--3-3----------------------------------------|
|------------------|-------------------------------------------------|

SOLO:

Guitar 1:
|--------------------------------------------------------------------------|
|--15-15-13h15-13p12h13----------------------------------------------------|
|--------------------------------------------------------------------------|
|------------------------14-14-12-12-10-10-9-9-12-12-10-10-9-9-7-9-7-9-12--|
|--------------------------------------------------------------------------|
|--------------------------------------------------------------------------|

|---------------------------------------------------------------------------|
|---------------------------------------------------------------------------|
|-14-12-12---------------------------------------14b16r14-12-14-12---12-----|
|----------12b13-12-12-10-12b13r12-12-10---------------------------15-------|
|---------------------------------------------------------------------------|
|-----------------------------------------14-12-----------------------------|

Guitar 2:
|-------------------------------------------------------|
|-------------------------------------------------------|
|-------------------------------------------------------|
|-5-5-0-2-3-5-------------------------------------------|
|-5-5-0-2-3-3-------------------------------------------|
|-5-4-0-2-3---------------------------------------------|

Then, guitar 2 solos:
Guitar 1:
|-------------------------------------------------------|
|-------------------------------------------------------|
|-------------------------------------------------------|
|-5-5-0-2-3-5-------------------------------------------|
|-5-5-0-2-3-3-------------------------------------------|
|-5-4-0-2-3---------------------------------------------|

Guitar 2:
|----------------------------------------------------------|
|--------------8-6h8p6--10p8h10--10b11r10-10p8h10----------|
|---------------------7--------9-----------------10b12-----|
|12//5-7b8r7-5---------------------------------------------|
|----------------------------------------------------------|
|----------------------------------------------------------|

|--------------------------------------------------16--------|
|------15------------------------15----12//15//18--18b20-----|
|-14b16--14--12h14p12--12---14b16--14------------------------|
|--------------------15--------------------------------------|
|------------------------------------------------------------|
|------------------------------------------------------------|


Bridge: Guitar 1
|-------------------------------------------------------|
|-------------------------------------------------------|
|-4-4-4-2-2-2-2-2-2-2-2-0-0-0-0-------------------------|
|-5-5-5-4-4-4-4-3-3-3-3-2-2-2-2-------------------------|
|-------------------------------------------------------|
|-------------------------------------------------------|

Guitar 2:
|-------------------------------|-3-3-3-2-2-2-2-5-5-5-3-3-3-3-3--------------|
|-------------------------------|-3-3-3-3-3-3-3-6-6-6-5-5-5-5-5--------------|
|-12 (hold this note for two bars of ^^)-|-----------------------------------|
|-------------------------------|--------------------------------------------|
|-------------------------------|--------------------------------------------|
|-------------------------------|--------------------------------------------|

Lead Into Chorus: Both Guitars
|--------------------------------|
|--------------------------------|
|--------------------------------|
|-5-5-10-10-9-9-7-7--------------|
|-3-3-8--8--7-7-5-5--------------|
|--------------------------------|

Play Chorus

Outro:

Guitar 1:
|----------------|-------------------|--------------------|-----------15---|
|------15--------|-----15-15b17--15--|----15--------------|---15-15b17--15-|
|-12-------12----|-12----------------|-12----12--14b16r14-|-12-------------| 
|-------------12-|-------------------|--------------------|----------------|
|----------------|-------------------|--------------------|----------------|
|----------------|-------------------|--------------------|----------------|


Guitar 2:
|-------------------------------------------------------|
|-------------------------------------------------------|
|------------------------------------x8-----------------|
|-5-5-0-2-3-5-------------------------------------------|
|-5-5-0-2-3-3-------------------------------------------|
|-5-4-0-2-3---------------------------------------------|


for last 8 measures,
hold a C chord
|--|
|--|
|-5|
|-5|
|-3|
|--|
Show more