• Song:

    Rundgang Um Die Transzendentale Saule Der Singularitt

  • Artist:

    Burzum

sponsored links
- Burzum - Rundgang um die Transzendentale Saule der Singularit├Ąt -
- Fliosofem, 1996 -


I play the whole track in G-minor, 4/4 sigature.


Lead melody (00:26 - throughout):
     
G:|----------------|----------------||
D:|--------12------|--------12------|| 
A:|10--13-----(10)-|----1013---(10)-||
E:|----------------|----------------||

Notes: play two first notes of each bar staccato, other let ring.


Occasional bass adds:

A (02:19)

G:|----------------|----------------||
D:|----------------|----------------||
A:|----------------|----------------||
E:|----3---6---3---|----3-----6-3---||

B (11:59)

G:|----------------|----------------||
D:|----------------|----------------||
A:|----------------|----------------||
E:|10----------10--|------------10--||

C

All bass adds should be played staccato.
Show more
sponsored links
sponsored links