• Song:

    Glycerine

  • Artist:

    Bush

  • Album:

    The Best of '94 - '99 (...

This is my first tab

I changed the spacing between the notes of the previous version so that it is
easier to understand the timing
I also changed some of the strings to play so that it is simpler and easier on your fingers


Verse
G--------------------------------------------------------------------|
D---------------------------------0---0-0---0-0-0--------------------|
A-----------------3---3-3---3-3-3-----------------1---1-1---1-1-1----|   x7
E-1---1-1---1-1-1----------------------------------------------------|

Chorus
G--------------------------------------------------------------------|
D---------------------------------0---0-0---0-0----------------------|
A-----------------3---3-3---3-3-1---------------3-1---1-1---1-1-0----|   x2
E-1---1-1---1-1-0----------------------------------------------------|

Verse
G--------------------------------------------------------------------|
D---------------------------------0---0-0---0-0-0--------------------|
A-----------------3---3-3---3-3-3-----------------1---1-1---1-1-1----|   x6
E-1---1-1---1-1-1----------------------------------------------------|

Chorus
G--------------------------------------------------------------------|
D---------------------------------0---0-0---0-0----------------------|
A-----------------3---3-3---3-3-1---------------3-1---1-1---1-1-0----|   x2
E-1---1-1---1-1-0----------------------------------------------------|

Verse
G--------------------------------------------------------------------|
D---------------------------------0---0-0---0-0-0--------------------|
A-----------------3---3-3---3-3-3-----------------1---1-1---1-1-1----|   x5
E-1---1-1---1-1-1----------------------------------------------------|

Verse
G--------------------------------------------------------------------|
D---------------------------------0---0-0---0-0-0--------------------|
A-----------------3---3-3---3-3-3-----------------1---1-1---1-1-1----|   x4
E-1---1-1---1-1-1----------------------------------------------------|

Chorus
G--------------------------------------------------------------------|
D---------------------------------0---0-0---0-0----------------------|
A-----------------3---3-3---3-3-1---------------3-1---1-1---1-1-0----|   x2
E-1---1-1---1-1-0----------------------------------------------------|
Show more