• Song:

    Glycerine

  • Artist:

    Bush

  • Album:

    The Best of '94 - '99 (...

Bush - Glycerine This tabs way better than the other.

Verse
G----------------------------------------------------|
D----------------------------------------------------|
A-------------3-3-3-3-3-3-5-5-5-5-5-5-1-1-1-1-1-1----|   x7
E-1-1-1-1-1-1----------------------------------------|

Chorus
G----------------------------------------------------|
D----------------------------------------------------|
A-------------3-3-3-3-3-1-5-5-5-5-5-3-1-1-1-1-1-0----|   x2
E-1-1-1-1-1-0----------------------------------------|

Verse
G----------------------------------------------------|
D----------------------------------------------------|
A-------------3-3-3-3-3-3-5-5-5-5-5-5-1-1-1-1-1-1----|   x6
E-1-1-1-1-1-1----------------------------------------|

Chorus
G----------------------------------------------------|
D----------------------------------------------------|
A-------------3-3-3-3-3-1-5-5-5-5-5-3-1-1-1-1-1-0----|   x2
E-1-1-1-1-1-0----------------------------------------|

Verse
G----------------------------------------------------|
D----------------------------------------------------|
A-------------3-3-3-3-3-3-5-5-5-5-5-5-1-1-1-1-1-1----|   x5
E-1-1-1-1-1-1----------------------------------------|

Verse
G----------------------------------------------------|
D----------------------------------------------------|
A-------------3-3-3-3-3-3-5-5-5-5-5-5-1-1-1-1-1-1----|   x4
E-1-1-1-1-1-1----------------------------------------|

Chorus
G----------------------------------------------------|
D----------------------------------------------------|
A-------------3-3-3-3-3-1-5-5-5-5-5-3-1-1-1-1-1-0----|   x4
E-1-1-1-1-1-0----------------------------------------|
Show more