• Song:

    Summer Scarves

  • Artist:

    Butch Walker

  • Album:

    Sycamore Meadows

 																																													Summer Scarves Tab									by Butch Walker tabs |											tabbed by neoWhite | 									comments (0) 																																													1																							2																							3																							4																							5																																						   								 																	 									print																																							 									send																																							 									report																																																																																																																																															Recommended tabs																																																											If you like Summer Scarves Tab by Butch Walker you might also like these songs:																									Hey There Delilah Tabby Plain White Ts																									Mixtape Tabby Butch Walker																									Amy Chordsby Pure Prairie League																																																																																																																																Summer Scarves Lyricsby Butch Walker Lyrics																						Summer Scarves Tabat 911Tabs.com																																																						 																																																																																																																																																																																												 																																																																																																																												+ to speed up (numpad)															- to slow down (numpad)															Esc to stop																												Help																																																																																																																																																											Summer Scarves tab by Butch Walker, www.Ultimate-Guitar.Com																																													Listen to Summer Scarves																																														Add to favourites																																																																				Difficulty: novice																																																																																			tf_artist = "Butch Walker";											tf_song = "Summer Scarves";																																																												Song: Summer Scarves
Artist: Butch Walker
Album: Sycamore Meadows
Tabbed By: BeeMar

Capo 3rd Fret

Intro:

Gtr. 2
E------8-12-----------------------8-12--8-------------|
B-8h10-----------8-10---10---8h10---------8-----------|
G------------9-10------9--------------------10-9-10---|
D-----------------------------------------------------|
A-----------------------------------------------------|
E-----------------------------------------------------|

Pre verse: Am*,  Fmaj7* x2

*Fig. 1
    Am (x02210@1)             Fmaj7E|--0------0---0-0--0------0---0--------------| (1x3210@1)B|--0h1----1---1-1--1------1---1--------------|
G|--2------0h2p0-2--0h2----0h2p0--------------|   x2
D|--2------2---2-3--3------3---3--------------|
A|--0------0---0-0--0------0---0------ -------|
E|--0------0---0-1--1------1---1--------------|

             Am (x02210@1)                            Fmaj7Lyin' (1x3210@1)in the overgrown-up grass in the front yard
              Am (x02210@1)                          Fmaj7Water (1x3210@1)falling from the sky so warm it feels hard
                 G (320003@1)                     Fmaj7 (1x3210@1) G**
Trying to figure out just who you really are to me

**Fig. 2
   GE|--3-3-3-3-3-3-3-3-3-3-3-3-3-3-3----| (320003@1)B|--0-0-0-0h1-1-1-0-0-0-0-0-0-0-0----|
G|--0-0-0-0-0-0-0-0-0-0-0-0-0-0-0----|
D|--0-0-0-0-0-0-0-0-0-0-0-0-0-0-0----|
A|--2-2-2-2-2-2-0-2-2-2-2-2-2-2-2----|
E|--3-3-3-3-3-3-3-3-3-3-3-3-3-3-3----|


Chorus
        F/C (133211@1)name="chord_x02210@1">Am G (320003@1)                    AmAnd (x02210@1)the summer scarves are all around me
        F/C (133211@1)Am (x02210@1)name="chord_320003@1">G
And the sunburn grows around my neck
        F/C (133211@1)  Am (x02210@1)G (320003@1)               AmAnd (x02210@1)the sum of her still remains a memory
         F/C (133211@1)name="chord_x02210@1">Am GTill (320003@1)the summer turns the day to black


Intro

               Am (x02210@1)                            Fmaj7Needle (1x3210@1)droppin on a record that you bought for me
                  Am (x02210@1)                        Fmaj7And (1x3210@1)you traced my name inside the logo on the sleeve
                    G (320003@1)                           Fmaj7 (1x3210@1)  G**
You circled all the lines and the lyrics that you mean for me

Gtr. 2
E--8--7--8--------------|
B-----------8-----------|
G--------------7--------|  play during break after "lyrics that you mean..."
D------------------ ----|
A-----------------------|
E-----------------------|
Chorus

Bridge
     Am (x02210@1)             EmSome (022000@1)wait their whole life
        Am (x02210@1)           EmJust (022000@1)to feel something right
       Fmaj7 (1x3210@1)                           AmAnd (x02210@1)it grips you like a wave you wish it never goes away
        EmThen (022000@1)it does


Chorus

Outro: F/C, Am, G x4

Gtr. 2
E-------8-8------------------------------------------|
B-10-12-----8-8888-8888-8----------------------------|
G------------9----9----9-----------------------------|          x3
D----------------------------------------------------|
A----------------------------------------------------|
E----------------------------------------------------|


E-------8-8--------------|
B-10-12-----8-8----------|
G------------9-9b--------|
D------------------------|
A------------------------|
E------------------------|																																																																													tf_artist = "Butch Walker";											tf_song = "Summer Scarves";																															         																																																																																																		

Show more