-----------------------------------------------------------------------
	         In AMemory (x02220@1)- The Butterfly Effect
-----------------------------------------------------------------------
Tabbed by: Kristyn Lee
Email: spot_the_village_loony_836@hotmail.com

Tuning: Drop C

Intro/verse
D|-----------------------------------------------------------------|
A|-----------------------------------------------------------------|
F|----------------------9-9-9^-------------------------------------|x4
C|-7------10-9----9--7---------------------------------------------|
G|-7------7--7----7--7---------------------------------------------|
C|-7------7--7----7--7---------------------------------------------|

pre-chorus
D|-----------------------------------------------------------------|
A|-----------------------------------------------------------------|
F|-----------------------------------------------------------------|x4
C|--5h7-10p9-5h7-10p9-5h7------------------------------------------|
G|------------------------0----------------------------------------|
C|-----------------------------------------------------------------|

chorus
D|-----------------------------------------------------------------|
A|-----------------------------------------------------------------|
F|--9-------7------------------------------------------------------|x2
C|--7-------7----5-5h7--7~-----------------------------------------|
G|--7-------7-----------7~-----------------------------------------|
C|--7-------7-----------7~-----------------------------------------|

Repeat Verse 
Repeat pre-chorus
Repeat Chorus

2:47
D|---------------------|-----------------------------------------|
A|---------------------|-----------------------------------------|
F|---9-9-9--9-9/1211--|-----------------------------------------|x8
C|---7-7-7--7-7/109---|---33333333-22222222---------------------|
G|---7-7-7--7-7/109---|---33333333-22222222---------------------|
C|---7-7-7--7-7/109---|---33333333-22222222---------------------|

Repeat pre-chorus riff x4
then this, then pre-chorus again.
D|-----------------------------------------------------------------|
A|-----------------------------------------------------------------|
F|-----------------------------------------------------------------|x4
C|--5h7-9h10--5h7--9h10--5h7---------------------------------------|
G|---------------------------0-------------------------------------|
C|-----------------------------------------------------------------|

quiet part
D|-----------------------------------------------------------------|
A|----------------10~----------------------------------------------|
F|--9~-----9~------9~-----9~---------------------------------------|x4
C|--9~-----9~------7~-----9~---------------------------------------|
G|--7~-----10~-----------10~---------------------------------------|
C|-----------------------------------------------------------------|


D|-----------------------------------------------------------------|
A|---------------------8------8------------------------------------|
F|-----------7-------9---9--7---7----------------------------------|
C|--10-9-10----9-10------------------------------------------------|
G|-----------------------------------------------------------------|
C|-----------------------------------------------------------------|

D|-----------------------------------------------------------------|
A|---------------------------8----------8--------------------------|
F|---------------7--------9--9--9----7--7--7-----------------------|
C|--10--9---10---9-9-10---10----10---9-----9-----------------------|
G|--12--12--12-----7--7--------------------------------------------|
C|-----------------------------------------------------------------|


| ^  bend note
| /  slide up
|   slide down
| h  hammer-on
| p  pull-off
| ~  vibrato
| +  harmonic
| x  Mute note
===========================================================================

Show more