-----------------------------------------------------------------------
			          Reach - The Butterfly Effect
-----------------------------------------------------------------------
Tabbed by: Kristyn Lee
Email: spot_the_village_loony_836@hotmail.com

Tuning: Drop C

intro 
D|------------------------------------------------------------------|
A|------------------------------------------------------------------|
F|------------------------------------------------------------------|
C|----------------18-16-----------------18-16-----------------------|
G|------------------------------------------------------------------|
C|-14-16-16-16-16--------14-16-16-16-16-------16-16-16-14-14-14-14--|
                                                                    |x3
D|------------------------------------------------------------------|
A|------------------------------------------------------------------|
F|------------------------------------------------------------------|
C|----------16-14-12------------12-11-9-----------------------------|
G|------------------------------------------------------------------|
C|-12-12-12----------129-9-9-9-------------------------------------|


       
D|------------------------------------------------------------------|
A|------------------------------------------------------------------|
F|------------------------------------------------------------------|
C|-0-2-0~-----------------------------------------------------------|
G|-0-2-0~--9h11p0-9h11-0-9h11-0-9h11-0-9h11-0~----------------------|
C|-0-2-0~--9h11p0-9h11-0-9h11-0-9h11-0-9h11-0~----------------------|
   .                                                                |x2
                                                                    |
D|------------------------------------------------------------------|
A|------------------------------------------------------------------|
F|------------------------------------------------------------------|
C|-----------------------------2-0~---------------------------------|
G|---------------------------0-2-0~---------------------------------|
C|-9h11-0-9h11-0-9h11-0-9h11-0-2-0~---------------------------------|
                             .

verse        "last night i dreamt..."    
D|-------------------------------------|   |----------------------|
A|-------------------------------------|   |----------------------|
F|-------------------------------------|   |--11111111/14---------|
C|-------------------------------------|x4 |--x-x-x-x--x---2-0----|
G|-------------------------------------|   |--9-9-9-9-/12--2-0----|
C|-9h11-0-9h11-0-9h11-0-9h11-0-9h11-0--|   |---------------2-0----|

D|-------------------------------------|
A|-------------------------------------|
F|-------------------------------------|
C|-------------------------------------|x4
G|-------------------------------------|
C|-9h11-0-9h11-0-9h11-0-9h11-0-9h11-0--|

chorus
D|----------------------------------------------------------------|
A|-----5-----5-----5----------------------------------------------|
F|-----x-----x-----x-----------11---------------------------------|
C|-444-4-444-4-444-4/7777-2-0--x----------------------------------|x2
G|-444-4-444-4-444-4/7777-2-0--9----------------------------------|
C|-444-4-444-4-444-4/7777-2-0----000-9p0-9h11-11-11---------------|

part before 2nd verse
D|-------------------------------|
A|-------------------------------|
F|-------------------------------|
C|-7-7-7-7-74-4-4-4-4-4--0-2-0--|
G|-5-5-5-5-52-2-2-2-2-2--0-2-0--|
C|------------------------0-2-0--|

verse
D|-------------------------------------|   |----------------------|
A|-------------------------------------|   |----------------------|
F|-------------------------------------|   |--11111111/14---------|
C|-------------------------------------|x4 |--x-x-x-x--x---2-0----|
G|-------------------------------------|   |--9-9-9-9-/12--2-0----|
C|-9h11-0-9h11-0-9h11-0-9h11-0-9h11-0--|   |---------------2-0----|

D|-------------------------------------|
A|-------------------------------------|
F|-------------------------------------|
C|-------------------------------------|x4
G|-------------------------------------|
C|-9h11-0-9h11-0-9h11-0-9h11-0-9h11-0--|



chorus
D|-----4-----4-----4----------------------------------------------|
A|-----5-----5-----5----------------------------------------------|
F|-----x-----x-----x-----------11---------------------------------|
C|-444-4-444-4-444-4/7777-2-0--x----------------------------------|x2
G|-444-4-444-4-444-4/7777-2-0--9----------------------------------|
C|-444-4-444-4-444-4/7777-2-0----000-9p0-9h11-11-11---------------|


bridge
D|--------------------------------------------------------------|
A|--------------------------------------------------------------|
F|------------------------11111111119/11111111111--------------|
C|--7-7-7-7-74-4-4-4-----x-x-x-x-x--x-x-x-x-x-x-x--------------|x2
G|--5-5-5-5-52-2-2-2--0--9-9-9-9-9-7/9-9-9-9-9-9--------------|
C|---------------------0----------------------------------------|

  "when all your dreams have died, i don't wanna die"
D|-----------------|--------------------------------------|
A|-----------------|--------------------------------------|
F|-----------------|--------------------------------------|
C|-77777774444444-|-0-2----------------------------------|x3
G|-55555552222222-|-0-2-0-9h11-0-9h11-0-9h11-0-9h11-0-2--|
C|-----------------|-0-2-0-9h11-0-9h11-0-9h11-0-9h11-0-2--|


   play this twice. the fist time is a little different.
   listen and you'll work it out. 
D|-----------------------------------------------------------|
A|-----------------------------12121212/14-----121212/1514--|
F|----11---------11------------x-x-x-x--x------x-x-x--x--x---|
C|-4/-x--4--4-4/-x--4/7777-2-0-9-9-9-9/-11-----9-9-9-/1211--|
G|-4/-9--4--4-4/-9--4/7777-2-0-------------0-0---------------|
C|-4/----4--4-4/----4/7777-2-0-------------0-0---------------|

outro
D|------------------------------------------------------------|
A|------------------------------------------------------------|
F|------------------------------------------------------------|x4
C|----16-14-12---12-11-9-------------18-16-------------18-16--|
G|------------------------------------------------------------|
C|-12----------9---------14-16161616-------14-16161616--------|

                "if all we are, we are"
D|----------------------------------------------------|
A|----------------------------------------------------|
F|----------------------------------------------------|
C|-/////16~-14-16~-18-16~---18-16~-14-16~-18-16~------|
G|----------------------------------------------------|
C|----------------------------------------------------|


                      THE END.

That's pretty accurate i think. My baby loves this song 


| /  slide up
|   slide down
| h  hammer-on
| p  pull-off
| ~  vibrato
| +  harmonic
| .  Palm Mute
====================================================================


Show more