• Song:

    Cough Syrup

  • Artist:

    Butthole Surfers

  • Album:

    Tejass - Live in Pepper...

COUGH SYRUP
by the Butthole Surfers

Intro/Verse:

This riff is "Riff A"

E------------------------0--|
B----------------------0-0--|
G----------------------1-0--|
D--2-2-2-2-2-2-2-2-2-2-2-2--|
A--2-2-2-2-2-2-2-2-2-2-2-2--|
E--0-0-0-0-0-0-0-0-0-0-0-0--|

Chorus chords are:

   G (320003@1) D (xx0232@1) C (x32010@1)EmE--3---2---0---0--| (022000@1)B--3---3---1---0--|
G--0---2---0---0--|
D--0---0---2---2--|
A--2-------3---2--|
E--3-----------0--|

And they go in this order:

G (320003@1)                 D (xx0232@1)                 Riff AI (x02220@1)can't walk so I guess I'm gonna stay at home

          D (xx0232@1)               C (x32010@1)            EmThey (022000@1)can have my legs just leave my mail alone

Repeat Verse/Chorus (extend/repeat 2nd chorus, playing Riff A where Em is)

Another verse, then this part:

      C (x32010@1)              D (xx0232@1)          EmAnd (022000@1)I heard that his brother was a viking

      G (320003@1)              D (xx0232@1)          EmHe'd (022000@1)like to solve a problem with a gun

etc...... (repeat that part til outro, cello enters overtop towards end)

Show more