• Song:

    Tongue

  • Artist:

    Butthole Surfers

  • Album:

    Independent Worm Saloon

So apparently there's some tone
deaf people posting tabs on here.
So heres a pretty damn good tab for tongue

Intro rift is BASS, NOT GUITAR, however
there are some improvised guitar noises
behind the bass rift so have at it with
whatever you want to make it sound good

Verses

G (320003@1)       FI (133211@1)can't believe it

C (x32010@1)        GTalking (320003@1)to people here

G (320003@1)         FCowboys (133211@1)and Indians

C (x32010@1)        GHave (320003@1)taken controooool

G (320003@1)          FIt (133211@1)really was a wild one

C (x32010@1)          GBut (320003@1)summer has come and gone

G (320003@1)         FA (133211@1)lot of nice people

C (x32010@1)       Gwould (320003@1)fade away

Guitar fill

E----------|
B----------|
G----------|
D-10-10--7-|
A-10-10--7-|
E--8--8--5-|

Same as intro except a drum fill (listen to the song)

G (320003@1)       FHold (133211@1)back seasons

C (x32010@1)            GTake (320003@1)back the memory

G (320003@1)        FHold (133211@1)on to something

C (x32010@1)            GBetter (320003@1)hold on to you

G (320003@1)          FIt (133211@1)really was a wild one

C (x32010@1)         GBut (320003@1)summer has come and gone

G (320003@1)         FA (133211@1)lot of nice people

C (x32010@1)       Gwould (320003@1)fade away

Same guitar fill as before

E----------|
B----------|
G----------|
D-10-10--7-|
A-10-10--7-|
E--8--8--5-|

Again... the intro rift with a slight difference

Listen to the song to get the actual timing and rythm

E--X-X-X-X-X-X-X-X-X-X-X-X-X-X-X-X---------------------|
B--X-X-X-X-X-X-X-X-X-X-X-X-X-X-X-X---------------------|
G--X-X-X-X-X-X-X-X-X-X-X-X-X-X-X-X---------------------|
D--X-X-X-X-X-X-X-X-X-X-X-X-X-X-X-X-8--10--11--10--8-10-|
A--X-X-X-X-X-X-X-X-X-X-X-X-X-X-X-X-8--10--11--10--8-10-|
E--X-X-X-X-X-X-X-X-X-X-X-X-X-X-X-X-6---8---9---8--6--8-|

E--X-X-X-X-X-X-X-X-X-X-X-X-X-X-X-X----------------------|
B--X-X-X-X-X-X-X-X-X-X-X-X-X-X-X-X----------------------|
G--X-X-X-X-X-X-X-X-X-X-X-X-X-X-X-X----------------------|
D--X-X-X-X-X-X-X-X-X-X-X-X-X-X-X-X-11--10--8--10--11-10-|
A--X-X-X-X-X-X-X-X-X-X-X-X-X-X-X-X-11--10--8--10--11-10-|
E--X-X-X-X-X-X-X-X-X-X-X-X-X-X-X-X--9---8--6---8---9--8-|

E--X-X-X-X-X-X-X-X-X-X-X-X-X-X-X-X---------------------|
B--X-X-X-X-X-X-X-X-X-X-X-X-X-X-X-X---------------------|
G--X-X-X-X-X-X-X-X-X-X-X-X-X-X-X-X---------------------|
D--X-X-X-X-X-X-X-X-X-X-X-X-X-X-X-X-8--10--11--10--8-10-|
A--X-X-X-X-X-X-X-X-X-X-X-X-X-X-X-X-8--10--11--10--8-10-|
E--X-X-X-X-X-X-X-X-X-X-X-X-X-X-X-X-6---8---9---8--6--8-|

E--X-X-X-X-X-X-X-X-X-X-X-X-X-X-X-X----------------------|
B--X-X-X-X-X-X-X-X-X-X-X-X-X-X-X-X----------------------|
G--X-X-X-X-X-X-X-X-X-X-X-X-X-X-X-X----------------------|
D--X-X-X-X-X-X-X-X-X-X-X-X-X-X-X-X-11--10--8--10--11-10-|
A--X-X-X-X-X-X-X-X-X-X-X-X-X-X-X-X-11--10--8--10--11-10-|
E--X-X-X-X-X-X-X-X-X-X-X-X-X-X-X-X--9---8--6---8---9--8-|

E--------------------------------------------------|
B--------------------------------------------------|
G--------------------------------------------------|
D--11--10--8--10--11-10--11--10--8--10--11-10--11\-|
A--11--10--8--10--11-10--11--10--8--10--11-10--11\-|
E---9---8--6---8---9--8---9---8--6---8---9--8---9\-|

(Your gonna die up there)

Thats it...
Show more