• Song:

    Adriana

  • Artist:

    Cadu

(intro) ( B F# C# D# )

(riff inicial)

E  | ------------------------------------------------------ | 
B  | -------------11-----------11------------13-------13--- | 
G  | ---------11-----11----11-----11----13----13--------13- | 
D  | --0(b9)------------------------------------------------- |  (8x)
A  | -------------------0(b9)-------------------------------- | 
E  | ----------------------------------11----------13------ | 

(2x s? o solo, 2x entra o baixo, e depois segue cantando)

B        F#
Quando eu ti conheci
C#         D#
Era maravilhoso
B        F#
Tudo era t?o gostoso
C#         D#
Mas voc? mudou
B           F#
N?o brinca como antes
C#           D#
Ficou mais distante
B        F#            C#
E me deixou assim.

(no F# , entra a guitarra destorcida fazendo os bicores)

      B                              F#     C#    D#
Adriana           diz que me ama
B                     F#     C#    D#
N?o me engana, quem te ama sou eu
         B                 F#     C#    D#
And are still more amused by tv shows
                 B
Que eu quero ti falar
     F#                  C#     D#
O que mais quero,
                    C#                    B
? uma chance pra, para ti amar

(tocar riff inicial (1x) e segue s? com os bicordes)

B        F#
Sei que voc? tem sua vida
C#         D#
Mas por favor n?o minta
B        F#
Deve esta pensando em outro
C#         D#
Eu sou mesmo um tolo
B        F#
Que demorei a ti contar
C#         D#
Mas estou apaixonado
B           F#            C#
Do fundo do meu cora??o

(no F# , entra a guitarra destorcida fazendo os bicores)

      B                              F#     C#    D#
Adriana           diz que me ama
B                     F#     C#    D#
N?o me engana, quem te ama sou eu
         B                 F#     C#    D#
And are still more amused by tv shows
                 B
Que eu quero ti falar
     F#                  C#     D#
O que mais quero,
                    C#                    B
? uma chance pra, para ti amar

(riffs)
E  | --06----
B  | ----07--
G  | --------    (4x)
D  | --------
A  | --------
E  | --------

E  | ----------------------------------- | --------------------------------------- | 
B  | ----------------------------------- | --------------------------------------- | 
G  | -----11----11-------11----11------- | .-------------------------------------. | 
D  | --------11----11-------11----11---- | .---------08/0(b9)----------08/09/08----. | 
A  | --0(b9)------------0(b9)------------0(b9) | --0(b9)0(b9)0(b9)------0(b9)0(b9)0(b9)---------0(b9)- | 
E  | ----------------------------------- | --------------------------------------- | 

                    (8x)
E  | ------------------- | 
B  | ------------------- | 
G  | ---------11-------- | 
D  | ------o8-------08-- | 
A  | ---0(b9)------0(b9)---- | 
E  | ------------------- | 

(no F# , entra a guitarra destorcida fazendo os bicores)

      B                              F#     C#    D#
Adriana           diz que me ama
B                     F#     C#    D#
N?o me engana, quem te ama sou eu
         B                 F#     C#    D#
And are still more amused by tv shows
                 B
Que eu quero ti falar
     F#                  C#     D#
O que mais quero,
                    C#                    B
? uma chance pra, para ti amar

B
Para ti amar
Show more