• Song:

    Antiquated Decorum

  • Artist:

    Capitalist Casualties

  • Album:

    Subdivisions in Ruin

Tuning: Eb

Riff 1
|------------------|
|------------------|
|------------------|
|-2-2-2-2--1-1-1-1-|
|-2-2-2-2----------|
|-0-0-0-0----------|

Riff 2
|-----------|
|-----------|
|---------8-|
|-2-7-5-7-8-|
|-2-7-5-7-6-|
|-0-5-3-5---|

Riff 3
|------|
|------|
|-9--8-|
|-9--8-|
|-7--6-|
|------|

Riff 4
|-----------|
|-----------|
|-9-8-9-5-8-|
|-9-8-9-5-8-|
|-7-6-7-3-6-|
|-----------|

Listen the song to get the rhythm.
Show more