• Song:

    The Part About The Vine Thats Growing Through My Window And Reaching Towards My Bed

  • Artist:

    Carissas Wierd

Intro/Verse
E|-----------------------|
B|---------0-------------|
G|-------3---3------1----|
D|-----1-------1----2----|
A|---2-----------2--2----|
e|-2---------------------|

Chorus
E|----------------------|--------------------|------------------------------------|
B|----------------------|--------------------|------------------------------------|
G|-----------4----------|----------3---------|---------1-----------------1--------|
D|------6------6--------|------4------4------|-----2-----2-----------2-----2------|
A|---6----6-------6-----|---4----4------4----|---2---2-----2------2----2-----2----|
e|-4-----------------4--|-2---------------2--|-0--------------0-0--------------0--|

Then strum these 3 chords for the rest of the song.
Show more