• Song:

    Authority Is Dead

  • Artist:

    Casualties

  • Album:

    Stay Out of Order

THE CASUALTIES
"AUTHORITY IS DEAD"

VICIOUSPUNX7


STANDARD TUNNING

       INTRO
G|-----------------                    ----------|
D|-----------------  (3X)ON THE 3RD ADD----------|
A|-----------------                    ---7------|
E|2222--77--99-----                    ----------|


       VERSE
G|-----------------------|
D|-----------------------| (4X)
A|-----55-----99---------|
E|7777-----77----77---555|

       
       CHORUS
G|------------------|
D|------------------|
A|-----999-7-999-7--|
E|7777--------------|


ORDER:
INTRO(3X)
VERSE(4X)
CHORUS(4X)
VERSE(4X)
CHORUS(4X)
VERSE(4X)

(REPEAT ORDER)
Show more