• Song:

    Down And Out

  • Artist:

    Casualties

  • Album:

    Made In Nyc

This tab was created by me (Carson) on 09/04/06.
This is my first bass tab, and to me it seems pretty close to the song. I don't think 
there is a bass solo in the third verse, but if there is, I can't hear it.

G|-----
D|-----
A|11/1-
E|-----

G|------0---------------0-----------------------------------------|
D|----------------------------------------------------------------|
A|0---5-----5-3-0-----3-----3-0-3-5-555-3-------------------------|
E|----------------3-----------------------3-33333-5-555-3-5-3-0-3-|

Verse
G|--------0---------------0---------------------------------------|
D|----------------------------------------------------------------|
A|----5-5---5-3-0-----3-3---3-0-3-5-5-5-3-------------------------|
E|5-5-------------3-3---------------------3-3-3-3-5-5-5-3-5-3-0-3-| X 4

Chorus
G|--------------------------------|
D|--------------------------------|
A|3-3-3-3-------------------------|
E|--------3-3-3-3-5-5-5-3-5-3-0-3-|

G|---------------------------------|
D|---------------------------------|
A|5-5-5-5--------------------------|
E|---------3-3-3-3-5-5-5-5-5-5-5-5-|

G|--------------------------------|
D|--------------------------------|
A|3-3-3-3-------------------------|
E|--------3-3-3-3-5-5-5-3-5-3-0-3-|

G|-------------------------------------------------|
D|-------------------------------------------------|
A|5-5-5-5------------------------------------------|
E|---------3-3-3-3-5-------5-------5-------5-------|

Verse
Chorus

Guitar solo
G|--------0---------------0---------------------------------------|
D|----------------------------------------------------------------|
A|----5-5---5-3-0-----3-3---3-0-3-5-5-5-3-------------------------|
E|5-5-------------3-3---------------------3-3-3-3-5-5-5-3-5-3-0-3-| X 2

Verse #3
G|--------0---------------0---------------------------------------|
D|----------------------------------------------------------------|
A|----5-5---5-3-0-----3-3---3-0-3-5-5-5-3-------------------------|
E|5-5-------------3-3---------------------3-3-3-3-5-5-5-3-5-3-0-3-|

G|--------0---------------0---------------------------------------|
D|--------------------------------------------------------5-------|
A|----5-5---5-3-0-----3-3---3-0-3-5-5-5-3-----------3-5-7---7-5-3-|
E|5-5-------------3-3---------------------3-3-3-3-5---------------|

Chorus

Ending
G|-----
D|-----
A|11/1-
E|-----

G|------0---------------0-----------------------------------------|
D|----------------------------------------------------------------|
A|0---5-----5-3-0-----3-----3-0-3-5-555-3-------------------------|
E|----------------3-----------------------3-33333-5-555-3-5-3-0-3-|
Show more