• Song:

    Fight For Your Life

  • Artist:

    Casualties

  • Album:

    Stay Out of Order

THE CASUALTIES
"FIGHT FOR YOUR LIFE"

VICIOUSPUNX7(SID)

STANDARD TUNING



       INTRO/CHORUS
G|-------------------------------------------------------------|
D|------------------- 9X(ON THE  9TH ADD) ---------------------|
A|---------4444444------------------------------44----4---4----|
E|4444444-----------------------------------44------4---4----4-|
 

       VERSE
G|-----------------------------------
D|-----------6--444------------------
A|44444444-----------5--444--2--444--
E|-----------------------------------

 
       VERSE 2
G|----------------------------------------|
D|----------------------------------------|
A|2222--9999--2222--9999--2222--9--7--4---|
E|----------------------------------------|


LISTEN FOR THE ORDER!!!
Show more