• Song:

    Get Off My Back

  • Artist:

    Casualties

  • Album:

    Made In Nyc

----------------------------------------------------------------------------
                            CASUALTIES
----------------------------------------------------------------------------

Intro 1/Verse.
G|-----------------|
D|-----------------|
A|-000000000000001-|
E|-----------------|

Intro 2.
G|-----------------------------------|
D|----------333333-------------------|
A|-000000------------333333----------|
E|----------------------------333333-|

Chorus.
G|--------------------------|
D|-------333333-------------|
A|-000000------333333-------|
E|-------------------333333-|

Post-chorus.
G|------------------------------------------------------------------|
D|------------------------------------------------------------------|
A|-------3-00000000------3-00000000------3-00000000------3-55555555-|
E|-333-2-----------333-2-----------333-2-----------333-2------------|

Outro.
G|-----------------|
D|-----------------|
A|-5~----0~----5/1-|
E|----3~-----------|
Show more