• Song:

    Great American Progress

  • Artist:

    Casualties

Casualties
"Great American Progress"
Under Attack

     Riff 1
D|-----------------------------------------|
G|-----------------------------------------|x2
A|-----------5p4-------9p7-------4h7-------|
E|-5p4-------------------------------------|

     Riff 2
D|-----------------------------------------|
G|-----------------------------------------|x2
A|----------54444444-97777777-47777777-----|
E|-54444444--------------------------------|

     Riff 3
D|-----------------------------------------|
G|-----------------------------------------|
A|------6-66-2-22--------------------------|
E|-6-66-----------4-5----------------------|

    Riff 4
D|-----------------------------------------|
G|-----------------------------------------|x4
A|--------------567------------------------|
E|-666666667777----------------------------|

Then repeat everything.

Riff 1 x2
Riff 2 x2
Riff 3 
Riff 4 x4

    Riff 5 
D|-----------------------------------------|
G|-----------------------------------------|x4
A|-45555-79999-47777-----------------------|
E|-----------------------------------------|

Riff 1 x2
Riff 2 x4

    Outro
D|-----------------------------------------|
G|-----------------------------------------|
A|------6-66-2-22--------------------------|
E|-6-66-----------4-5-6--------------------|
Show more