• Song:

    Made In Nyc

  • Artist:

    Casualties

  • Album:

    Made In Nyc

Standard Tuning


Intro
G|--------------------------------------|
D|--------------------------------------|
A|-99999119-7777797-99999119-11-13-14-11|
E|--------------------------------------|


Normal Verse + Chorus
G|-----------------------------------------------------------|
D|-----------------------------------------------------------|
A|-------7777777-------677767776-------777777-999999-9-7-6-4-|
E|-777777-------7777777----------777777----------------------|

G|------------------------------------------------------|
D|------------------------------------------------------|
A|-------7777777-------677767776-------777777-5555-9999-|
E|-777777-------7777777----------777777-----------------|



Fast Verse + Chorus
G|-----------------------------------|
D|-----------------------------------|
A|-77--77-----------77--77--99999999-|
E|---77--77-55555555--77--77---------|

G|------------------------------------|
D|------------------------------------|
A|-----77-99----99-77----7777----9999-|
E|-7777-----7777-----7777----5555-----|
Show more