• Song:

    Mierda Mundial

  • Artist:

    Casualties

  • Album:

    Die Hards

-----------------------------------------------------------------------------
MIERDA MUNDIAL - Casualties
-----------------------------------------------------------------------------

Intro
G-----------------------------|
D-------9---9-----9-----------|
A-7---77--77--7-77--7---7/15--|
E-----------------------------|

2nd Intro and Verses
G-----------------------------------|
D-----------------------------------|
A-775-775-77-87--333333333222222222-|
E-----------------------------------|

Chorus
G-------------------|
D-------------------|
A-777-333-555555555-|
E-------------------|

G-------------------|
D-------------------|
A-777-333-222222222-|
E-------------------|

Bridge (Mierda religiosa,debuelve nuestra fe...)
G-----------------|
D-----------------|
A---55----77------|
E-33---55---77777-|

End on E
Show more