• Song:

    Nightmare

  • Artist:

    Casualties

^^nightmare^^  the casualties


           INTRO

G-------------------------------------------------------------|
D-----------3-3-3---------------------------------------------|
A--5-3---5----------------------------------------------------|
E------5------------------------------------------------------|

     VERSO

G-------------------------------------------------------------|
D--------------333---------555-333----------------------------|
A---55-3----55-----55-3---------------------------------------|
E--------5--------------5-------------------------------------|


    CORO


G-------------------------------------------------------------|
D-------------------------------------------------------------|
A--2-555-255-----888-555-------888--101010--------------------|
E------------555----------555---------------------------------|


ahi ta la wea ke alcance a caxar del tema ojala te bien la wea culkier duda consulta o 
a:

melleveelchanfle@gmail.com
Show more