• Song:

    No Rules

  • Artist:

    Casualties

  • Album:

    Underground Army

The Casualties -  No Rules


verse
G---------------------------------------|
D---------------------------------------|
A------3333------2-3--------------------|
E-5555------3333------------------------|

  p-chorus
G----------------------------------------|
D----------------------------------------|
A-----3---3---555-3----------------------|
E---5---5-----------5--------------------|

  chorus
G---------------------------------------|
D---------------------------------------|
A--7777------3333---2-3-----------------|
E-------5555----------------------------|

G--------------------------------------------|
D--------------------------------------------|
A-7777-------3333---8-8----------------------|
E------5555----------------------------------|
Show more