sponsored links
Band: Cephalic Carnage
     Song: "Antro Emesis"
       CD: "Lucid Interval"
   Length: 6:20

   Tuning: (B,E,A,D,F#,B)

      Key:     % = Rest
           <> ph = Pich Harmonic
              pm = Palm Mute
               " = Tremelo Picking
               h = Hammer On
               b = Bend Half Step




     Intro - (Guitar 1)

  B|----------------------------------------------------------------------------------------|
 F#|----------------------------------------------------------------------------------------|
  D|----------------------------------%-------------------------------------%---------------|
  A|----3--2-----1--------------------------------3--2-----1--------------------------------|
  E|-2--------1-----1-----2--------------------2--------1-----1--3--2-----------------3--2--|
  B|-------------------1--0--------------------------------------1--0-----------------1--0--|


     Intro - (Guitar 2)

  B|----------------------------------------------------------------------------------------|
 F#|----------------------------------------------------------------------------------------|
  D|----------%----------------------------------------%------------------------------------|
  A|-------------------------3--2-----1--------------------------------3--2-----1-----------|
  E|----------------------2--------1-----1--3--2-----------------3--2--------1-----1--3--2--|
  B|----------------------0-----------------1--0-----------------1--0-----------------1--0--|


     Intro - (Guitar 1)

  B|---------------------------------------------------------------------------------------------|
 F#|---------------------------------------------------------------------------------------------|
  D|---------------------------------------------------------------------------------------------|
  A|----3--2-----1--------------3--2-----1--------------3--2-----1-------------------------------|
  E|-2--------1-----1--------2--------1-----1--------2--------1-----1--3--2----------------3--2--|
  B|-------------------1--0--------------------1--0--------------------1--0----------------1--0--|


     Intro - (Guitar 2)

  B|---------------------------------------------------------------------------------------------|
 F#|---------------------------------------------------------------------------------------------|
  D|---------%----------------------%-----------------------%------------------------------------|
  A|-------------------------------------------------------------------------3--2----1-----------|
  E|-------------------3--2--------------------3--2--------------------3--2--------1----1--------|
  B|-------------------1--0--------------------1--0--------------------1--0----------------1--0--|





     Riff 3 - (Guitars 1 & 2)

  B|---------------------------------------------|---------------------------------------------|
 F#|---------------------------------------------|---------------------------------------------|
  D|---------------------------------------------|---------------------------------------------|
  A|----10--9-----8----------5--4-----3-----3--4-|----10--9-----8----------5--4-----3-----3--4-|
  E|-9---8--7--8--6--8--3-2--3--2--3--1--3--1--2-|-9---8--7--8--6--8--3-2--3--2--3--1--3--1--2-|
  B|-7---------6-----6--1-0--------1-----1-------|-7---------6-----6--1-0--------1-----1-------|





     Riff 4 - (Guitar 1)

        ph   ph                                 ph              ph   ph                                ph
  B|-------------------------------------------------------|-------------------------------------------------------|
 F#|-------------------------------------------------------|-------------------------------------------------------|
  D|-------------------------------------------------------|-------------------------------------------------------|
  A|----<3>--<2>-----1-------------3-3-2-2-----<1b>--------|----<3>--<2>-----1-------------3-3-2-2-----<1b>--------|
  E|-2------------1-----1------------------1-1-------1-1---|-2------------1-----1------------------1-1-------1-1---|
  B|-----------------------0-0--0--------------------1-1-0-|-----------------------0-0--0--------------------1-1-0-|
  pm              .     .  . .  .  . . . . . .       . .                  .     .  . .  .  . . . . . .       . .


     Riff 4 - (Guitar 2)

  B|-----------------------------------------------------------|-----------------------------------------------------------|
 F#|-----------------------------------------------------------|-----------------------------------------------------------|
  D|-----------------------------------------------------------|-----------------------------------------------------------|
  A|-----5"--4"------3"-------------5"--4"------3"-------------|-----5"--4"------3"-------------5"--4"------3"-------------|
  E|-4"----------3"-------------4"----------3"------3"--1"--2"-|-4"----------3"-------------4"----------3"------3"--1"--2"-|
  B|--------------------0-0-0-0--------------------------------|--------------------0-0-0-0--------------------------------|
  pm                    . . . .							    . . . .    


						* Bass *


     Riff 5 - (Guitar 1)

  B|-----------------------------------------------------------|-----------------------------------------------------------|
 F#|-----------------------------------------------------------|-----------------------------------------------------------|
  D|-----------------------------------------------------------|-----------------------------------------------------------|
  A|-----3"--2"------1"-------------3"--2"------1"-------------|-----3"--2"------1"-------------3"--2"------1"-------------|
  E|-2"----------1"------1"-----------------1"------1"---------|-2"----------1"------1"-----------------1"------1"---------|
  B|-------------------------1"-0"----------------------1-"-0"-|-------------------------1"-0"----------------------1-"-0"-|
   

     Riff 5 (Guitar 2)

  B|-----------------------------------------------------------|-----------------------------------------------------------|
 F#|-----------------------------------------------------------|-----------------------------------------------------------|
  D|-----------------------------------------------------------|--------------------------------5"--4"------3"-------------|
  A|-----3"--2"------1"-------------3"--2"------1"-------------|-----3"--2"------1"---------------------3"------3"---------|
  E|-2"----------1"------1"-----------------1"------1"---------|-2"----------1"------1"------------------------------------|
  B|-------------------------1"-0"----------------------1-"-0"-|-------------------------1"-0"----------------------1-"-0"-|
    




     Riff 6 - (Guitars 1 & 2)

  B|-----------------------------------------------------------|-----------------------------------------------------------|
 F#|-----------------------------------------------------------|-----------------------------------------------------------|
  D|-----------------------------------------------------------|-----------------------------------------------------------|
  A|-----3"--2"------1"-------------3"--2"------1"-------------|-----3"--2"------1"-------------3"--2"------1"-------------|
  E|-2"----------1"------1"-----------------1"------1"---------|-2"----------1"------1"-----------------1"------1"---------|
  B|-------------------------1"-0"----------------------1-"-0"-|-------------------------1"-0"----------------------1-"-0"-|
   




     Riff 7 - (Guitars 1 & 2)

  B|----------------------------------------------------|----------------------------------------------------|
 F#|----------------------------------------------------|----------------------------------------------------|
  D|----------------------------------------------------|----------------------------------------------------|
  A|----3"-2"----1"----------3"-2"----1"----------4h6h7-|----3"-2"----1"----------3"-2"----1"----------4h6h7-|
  E|-2"-------1"----1"-------------1"----1"-4h6h7-------|-2"-------1"----1"-------------1"----1"-4h6h7-------|
  B|-------------------1"-0"----------------------------|-------------------1"-0"----------------------------|
  pm .  .  .  .  .  .  .  .  .  .  .  .  .  . . . . . .   .  .  .  .  .  .  .  .  .  .  .  .  .  . . . . . .



     Fill 1 - (Guitars 1 & 2)

  B|-------------------|
 F#|-------------------|
  D|-9--9--9--9--7-----|
  A|-8--8--8--8--6-----|
  E|-------------------|
  B|-------------------|
  pm .  .  .  .  .





     Riff 8 - (Guitars 1 & 2)

                                                   2x
  B|------------------------|------------------------|       B|-------|
 F#|------------------------|------------------------|      F#|-------|
  D|-9--9--9--9--7--7--5--5-|-9--9--9--9--7--7--5--5-|       D|-------|
  A|-8--8--8--8--6--6--4--4-|-8--8--8--8--6--6--4--4-|       A|-3-----|
  E|------------------------|------------------------|       E|-1--3--|
  B|------------------------|------------------------|       B|----1--|
  pm .  .  .  .  .  .  .  .   .  .  .  .  .  .  .  .





     Riff 9 - (Guitar 2)

  B|-----------------------------------|------------------------------|
 F#|-----------------------------------|------------------------------|
  D|-----------------------------------|---------------------------7--|
  A|-----------------------------------|---------------------------5--|
  E|---------------------------5---4-5-|---------------------------5--|
  B|-3-3-0----3-3-0----0-3-2-3---3-----|-3-3-0----3-3-0----0-3-2-3----|
  pm . .      . .      . . . . . . . .   . .      . .      . . . .


     Riff 9 - (Guitar 1)

  B|-----------------------------------|------------------------------|
 F#|-----------------------------------|------------------------------|
  D|----------------%------------------|---------------------------7--|
  A|-----------------------------------|---------------------------5--|
  E|-----------------------------------|---------------------------5--|
  B|-----------------------------------|-3-3-0----3-3-0----0-3-2-3----|
  pm                   			 . .      . .      . . . . 





     Riff 10 - (Guitars 1 & 2)
   		   		     5x
  B|-----------------------------------|
 F#|-----------------------------------|
  D|-----------------------------------|
  A|-----------------------------------|
  E|---------------------------5---4-5-|
  B|-3-3-0----3-3-0----0-3-2-3---3-----|
  pm . .      . .      . . . . . . . .


     Riff 10A - (Guitar 1)

  B|-----------------------------------|
 F#|-----------------------------------|
  D|-----------------------------------|
  A|-----------------------------------|
  E|---------------------------5---4-5-|
  B|-3-3-0----3-3-0----0-3-2-3---3-----|
  pm . .      . .      . . . . . . . .


     Riff 10A - (Guitar 2)

                                 ph   ph
  B|---------------------------------------|
 F#|---------------------------------------|
  D|----------------------------<4>--------|
  A|---------------------------------<2b>--|
  E|---------------------------------------|
  B|-3-3-0----3-3-0----0-3-2-3-------------|
  pm . .      . .      . . . .


     Riff 9 - (Guitars 1 & 2)

  B|-----------------------------------|------------------------------|
 F#|-----------------------------------|------------------------------|
  D|-----------------------------------|---------------------------7--|
  A|-----------------------------------|---------------------------5--|
  E|---------------------------5---4-5-|---------------------------5--|
  B|-3-3-0----3-3-0----0-3-2-3---3-----|-3-3-0----3-3-0----0-3-2-3----|
  pm . .      . .      . . . . . . . .   . .      . .      . . . .


     Riff 10A - (Guitars 1 & 2)

  B|-----------------------------------|------------------------------------------------------|
 F#|-----------------------------------|------------------------------------------------------|
  D|-----------------------------------|------------------------------------------------------|
  A|-----------------------------------|------------------------------------------------------|
  E|---------------------------5---4-5-|---------------------------5---4-5--------------------|
  B|-3-3-0----3-3-0----0-3-2-3---3-----|-3-3-0----3-3-0----0-3-2-3---3------3-3-0----3-3-0----|
  pm . .      . .      . . . . . . . .   . .      . .      . . . . . . . .  . .      . .   


     ? ? ? ? ? ? 


     Riff 11 - (Guitars 1 & 2)

  B|--------------------------------------------------------------|
 F#|--------------------------------------------------------------|
  D|--------------------------------------------------------------|
  A|--------------------------------------------------------------|
  E|-5"------7"------3"----------5"------7"-----------------------|
  B|-----4"------6"------2"----------4"------6"--2"--4h5--1"------|


     ? ? ? ? ? ? 


     Riff 11 - (Guitars 1 & 2)

  B|--------------------------------------------------------------|
 F#|--------------------------------------------------------------|
  D|--------------------------------------------------------------|
  A|--------------------------------------------------------------|
  E|-5"------7"------3"----------5"------7"-----------------------|
  B|-----4"------6"------2"----------4"------6"--2"--4h5--1"------|


     Riff 11A - (Guitars 1 & 2) 

  B|--------------------------------------------------------------|
 F#|--------------------------------------------------------------|
  D|--------------------------------------------------------------|
  A|-5"------7"------3"----------5"------7"-----------------------|
  E|-----4"------6"------2"----------4"------6"-------------------|
  B|---------------------------------------------2"--4h5--1"------|





     Riff 12 - (Guitar 1)

  B|----------------------------------------------------------|
 F#|----------------------------------------------------------|
  D|----------------------------------------------------------|
  A|-5"------7"------3"----------5"------7"-------------------|
  E|-----4"------6"------2"----------4"------6"---------------|
  B|---------------------------------------------2"--4h5------|


     Riff 12 - (Guitar 2)

  B|----------------------------------------------------------|
 F#|----------------------------------------------------------|
  D|-5"------7"------3"----------5"------7"-------------------|
  A|----------------------------------------------------------|
  E|-----4"------6"------2"----------4"------6"---------------|
  B|---------------------------------------------2"--4h5------|





     Riff 13 - (Guitars 1 & 2)

  B|------------------------------------|------------------------------------|
 F#|------------------------------------|------------------------------------|
  D|------------------------------------|------------------------------------|
  A|----------------------5-----6-----5-|----------------------5-----6-----5-|
  E|------------------------------------|------------------------------------|
  B|-1"----0"----1"----3-----4-----3----|-1"----0"----1"----3-----4-----3----|
  pm                   .     .     .  .                     .     .     .  .


     ? ? ? ? ? ? 


     Riff 14 - (Guitar 2)
					  
  B|----------------------------------------|----------------------------------------|
 F#|----------------------------------------|----------------------------------------|
  D|----------------------------------------|----------------------------------------|
  A|----------------------------------------|----------------------------------------|
  E|-3----2----4----3----5----4----6----5---|-3----2----4----3----5----4----6----5---|
  B|-1----0----2----1----3----2----4----3---|-1----0----2----1----3----2----4----3---|


     Riff 14 - (Guitar 1)

  B|----------------------------------------|----------------------------------------|
 F#|----------------------------------------|----------------------------------------|
  D|------------------%---------------------|----------------------------------------|
  A|----------------------------------------|----------------------------------------|
  E|----------------------------------------|-----------4----3----5----4----6----5---|
  B|----------------------------------------|-----------2----1----3----2----4----3---|





   Riff 14 - (Guitars 1 & 2)
					  3x	          (Guitar 1)                  (Guitar 2)
  B|----------------------------------------|       B|------------------|       B|------------------|
 F#|----------------------------------------|      F#|------------------|      F#|------------------|
  D|----------------------------------------|       D|------/8-----(8)--|       D|------------------|
  A|----------------------------------------|       A|------------------|       A|------/8-----(8)--|
  E|-3----2----4----3----5----4----6----5---|       E|-3----------------|       E|-3----------------|
  B|-1----0----2----1----3----2----4----3---|       B|-1----------------|       B|-1----------------|





     Riff 15 - (Guitars 1 & 2)
						  3x
  B|------------------------------------------------|
 F#|------------------------------------------------|
  D|------------------------------------------------|
  A|------------------------------------------------|
  E|-3--3--2--2--4--4--3--3--5--5--4--4--6--6--5--5-|
  B|-1--1--0--0--2--2--1--1--3--3--2--2--4--4--3--3-|
  pm .  .  .  .  .  .  .  .  .  .  .  .  .  .  .  .


     Riff 15A - (Guitars 1 & 2)

  B|------------------------------------------------|
 F#|------------------------------------------------|
  D|------------------------------------------------|
  A|------------------------------------------------|
  E|-3--3--2--2--4--4--3--3--5--5--4--4--6--6--5--5-|
  B|-1--1--0--0--2--2--1--1--3--3--2--2--4--4--3--3-|
  pm .  .  .  .





     Riff 16 - (Guitars 1 & 2)

  B|---------------------------------------------------------|
 F#|---------------------------------------------------------|
  D|---------------------------------------------------------|
  A|-3------2------4------3------5------4------6------5------|
  E|-3------2------2------3------3------4------4------5------|
  B|-1------0------2------1------3------2------4------3------|





     Riff 17 - (Guitar 1)

  B|---------------------------------------------------------|
 F#|---------------------------------------------------------|
  D|---------------------------------------------------------|
  A|-3------2------4------3------5------4------6------5------|
  E|-3------2------2------3------3------4------4------5------|
  B|-1------0------2------1------3------2------4------3------|


     Riff 17 - (Guitar 2)

  B|---------------------------------------------------------|
 F#|---------------------------------------------------------|
  D|---------------------------------------------------------|
  A|-3------2------4------3------5------4------6------5------|
  E|-x------x------x------x------x------x------x------x------|
  B|-1------0------2------1------3------2------4------3------|





     Riff 18 - (Guitar 1)

  B|---------------------------------------------------------|
 F#|---------------------------------------------------------|
  D|---------------------------------------------------------|
  A|-4------3------4------3------4------3------4------3------|
  E|-2------3------2------3------2------3------2------3------|
  B|-2------1------2------1------2------1------2------1------|  


     Riff 18 - (Guitar 2)

  B|---------------------------------------------------------|
 F#|---------------------------------------------------------|
  D|---------------------------------------------------------|
  A|-4------3------4------3------4------3------4------3------|
  E|-2------x------2------x------2------x------2------x------|
  B|--------1-------------1-------------1-------------1------|





     Riff 19 - (Guitar 1)

  B|------------------------------------------------------------------------------|
 F#|------------------------------------------------------------------------------|
  D|------------------------------------------------------------------------------|
  A|-4------3------4------3------4------3------4------4----------------(4)--------|
  E|-2------3------2------3------2------3------2------4----------------(4)--------|
  B|-2------1------2------1------2------1------2------2----------------(2)--------|


     Riff 19 - (Guitar 2)

  B|------------------------------------------------------------------------------|
 F#|------------------------------------------------------------------------------|
  D|------------------------------------------------------------------------------|
  A|-4------3------4------3------4------3------4------4----------------(4)--------|
  E|-2------x------2------x------2------x------2------4----------------(4)--------|
  B|--------1-------------1-------------1-------------2----------------(2)--------|





     Riff 20 - (Guitar 1)

  B|-----------------------------------------------------------------------------------------------------------------------|
 F#|-----------------------------------------------------------------------------------------------------------------------|
  D|--------------------------------------------------------------------------------------------------------------------%--|
  A|-----------------------------------------------------------------------------------------------------------------------|
  E|-0-0-0-0--3-0-0-0--3-0-3-0--4-4-4-4--0-0-0-0--3-0-0-0--2-0-5-4-2-4--0-0-0-0--3-0-0-0--3-0-2-0--1-1-1-1--0-0-0-0--3-----|
  B|-----------------------------------------------------------------------------------------------------------------------|


     Riff 20 - (Guitar 2)

  B|-----------------------------------------------------------------------------------------------------------------------|
 F#|-----------------------------------------------------------------------------------------------------------------------|
  D|----------------------------%-------------------------------------------%-------------%-------------%-------%-------%--|
  A|--------------------------------------------------------------------2--------5-----------------3-3------2--------5-----|
  E|-------------------------------------------------------2-0-5-4-2-4--0--------3-----------------1-1------0--------3-----|
  B|-----------------------------------------------------------------------------------------------------------------------|
  pm						           . . . . . . 





     Riff 21 - (Guitars 1 & 2)

  B|-----------------------------------------------------------------------------|
 F#|-----------------------------------------------------------------------------|
  D|-----------------------------------------------------------------------------|
  A|-----------------------------------------------------------------------------|
  E|-0-0-0-0--3-0-0-0--3-0-3-0--4-4-4-4--0-0-0-0--3-0-0-0--3p0--4p0--4h5p4--2h4--|
  B|-----------------------------------------------------------------------------|


  B|-----------------------------------------------------------------------------|
 F#|-----------------------------------------------------------------------------|
  D|-----------------------------------------------------------------------------|
  A|-----------------------------------------------------------------------------|
  E|-0-0-0-0--3-0-0-0--3-0-2-0--1-1-1-1--0-0-0-0--3-0-0-0--3p0--4p0--4h5p4--2h4--|
  B|-----------------------------------------------------------------------------|


  B|----------------------------------------------------------------------------|
 F#|----------------------------------------------------------------------------|
  D|----------------------------------------------------------------------------|
  A|----------------------------6-6-6-6-----------------------------------------|
  E|-0-0-0-0--3-0-0-0--3-0-3-0--4-4-4-4--0-0-0-0--3-0-0-0--3-0-2-0--4h5p4--2h4--|
  B|----------------------------------------------------------------------------|





     Riff 22 - (Guitar 1)

  B|---------------------------------------|---------------------------------------|
 F#|---------------------------------------|---------------------------------------|
  D|---------------------------------------|---------------------------------------|
  A|---------------------------------------|---------------------------------------|
  E|-----------4-4-4-4------------3p0--4-4-|-----------4-4-4-4------------3p0--4-4-|
  B|-4h6--31-----------4h6--31-----------|-4h6--31-----------4h6--31-----------|


     Riff 22 - (Guitar 2)

  B|---------------------------------------|---------------------------------------|
 F#|---------------------------------------|---------------------------------------|
  D|---------------------------------------|---------------------------------------|
  A|------------------------------5----6-6-|------------------------------5----6-6-|
  E|-----------4-4-4-4------------3----4-4-|-----------4-4-4-4------------3----4-4-|
  B|-4h6--31-----------4h6--31-----------|-4h6--31-----------4h6--31-----------|





     Riff 21 - (Guitars 1 & 2)

  B|-----------------------------------------------------------------------------|
 F#|-----------------------------------------------------------------------------|
  D|-----------------------------------------------------------------------------|
  A|-----------------------------------------------------------------------------|
  E|-0-0-0-0--3-0-0-0--3-0-3-0--4-4-4-4--0-0-0-0--3-0-0-0--3p0--4p0--4h5p4--2h4--|
  B|-----------------------------------------------------------------------------|


  B|-----------------------------------------------------------------------------|
 F#|-----------------------------------------------------------------------------|
  D|-----------------------------------------------------------------------------|
  A|-----------------------------------------------------------------------------|
  E|-0-0-0-0--3-0-0-0--3-0-2-0--1-1-1-1--0-0-0-0--3-0-0-0--3p0--4p0--4h5p4--2h4--|
  B|-----------------------------------------------------------------------------|





     Riff 22 - (Guitars 1 & 2)

  B|-----------------------------------------------------------------------------------------|
 F#|-----------------------------------------------------------------------------------------|
  D|-----------------------------------------------------------------------------------------|
  A|--------------------------------------------------------------5"------7"------3"---------|
  E|-5"------7"------3"----------5"------7"---------------------------4"------6"------2"-----|
  B|-----4"------6"------2"----------4"------6"--2"--4h5--1"---------------------------------|


  B|-----------------------------------------------------------------------------------|
 F#|-----------------------------------------------------------------------------------|
  D|-----------------------------------------------------------------------------------|
  A|-5"------7"----------------5"------7"------3"----------5"------7"------------------|
  E|-----4"------6"----------------4"------6"------2"----------4"------6"--------------|
  B|-----------------2"--4h5-----------------------------------------------2"--4h5--1"-|


     ? ? ? ? ? ?

     
     Riff 23 - (Guitar 2)

  B|----------------------------------------|---------------------------------------|
 F#|----------------------------------------|---------------------------------------|
  D|----------------------------------------|---------------------------------------|
  A|----------------------------------------|---------------------------------------|
  E|-----------4-4-4-4------------3-----4~~-|-----------4-4-4-4------------3p0--4-4-|
  B|-4h6--31-----------4h6--31-----0------|-4h6--31-----------4h6--31-----------|
  pm                                 .


     Riff 23 - (Guitar 1)

  B|----------------------------------------|---------------------------------------|
 F#|----------------------------------------|---------------------------------------|
  D|-----------------%----------------------|---------------------------------------|
  A|----------------------------------------|---------------------------------------|
  E|----------------------------------------|-----------4-4-4-4------------3p0--4-4-|
  B|----------------------------------------|-4h6--31-----------4h6--31-----------|





     Riff 24 - (Guitars 1 & 2)
										  2x
  B|----------------------------------------|---------------------------------------|
 F#|----------------------------------------|---------------------------------------|
  D|----------------------------------------|---------------------------------------|
  A|----------------------------------------|---------------------------------------|
  E|-----------4-4-4-4------------3-----4~~-|-----------4-4-4-4------------3p0--4-4-|
  B|-4h6--31-----------4h6--31-----0------|-4h6--31-----------4h6--31-----------|
  pm                                 .





     Riff 25 - (Guitar 1)
				       2x
  B|-------------------------------------|       B|---------------------------|
 F#|-------------------------------------|      F#|---------------------------|
  D|-------------------------------------|       D|---------------------------|
  A|-------------------------------------|       A|---------------------------|
  E|-6-8-5-3--4-4-4-4--6-8-5-3--3p0--4-4-|       E|-6-8-5-3--4-4-4-4--6-8-5-3-|
  B|-4-6-3-1-----------4-6-3-1-----------|       B|-4-6-3-1-----------4-6-3-1-|
  pm . . . .           . . . .                   pm . . . .           . . . .


     Riff 26 (Guitar 2)

  B|--------------------------------------|       B|---------------------------|
 F#|--------------------------------------|      F#|---------------------------|
  D|-------------------------------%------|       D|---------------------------|
  A|----------6-6-6-6-----------5-----6-6-|       A|----------6-6-6-6----------|
  E|-6-8-5-3--4-4-4-4--6-8-5-3--3-----4-4-|       E|-6-8-5-3--4-4-4-4--6-8-5-3-|
  B|-4-6-3-1-----------4-6-3-1------------|       B|-4-6-3-1-----------4-6-3-1-|
  pm . . . .           . . . .                    pm . . . .           . . . . 





     Riff 27 - (Guitar 1)

  B|-------------------------------------------------------------------------------------------------|
 F#|-------------------------------------------------------------------------------------------------|
  D|---------------------------------%---------------------------------------------------------------|
  A|----3--2-----1---------------------------------------3--2-----1--------------3--2-----1----------|
  E|-2--------1-----1--3--2---------------------3--2--2--------1-----1--3--2--2--------1-----1--3--2-|
  B|-------------------1--0---------------------1--0--------------------1--0--------------------1--0-|


     Riff 27 - (Guitar 2)
										  ph  ph  ph  ph  ph
  B|-------------------------------------------------------------------------------------------------------|
 F#|-------------------------------------------------------------------------------------------------------|
  D|-----------%-----------------------------------------5--4-----3--------------<5>-<4>-----<3>-----------|
  A|-----------------------------3--2-----1-----------4--------3-----3--------4----------<3>-----<3>-------|
  E|-----------------------2--2--------1-----1-------------------------------------------------------------|
  B|-----------------------0--------------------1--0--------------------1--0--------------------------1--0-|





     Riff 3 - (Guitars 1 & 2)

  B|---------------------------------------------|
 F#|---------------------------------------------|
  D|---------------------------------------------|
  A|----10--9-----8----------5--4-----3-----3--4-|
  E|-9---8--7--8--6--8--3-2--3--2--3--1--3--1--2-|
  B|-7---------6-----6--1-0--------1-----1-------|




     Riff 4 - (Guitar 1)

        ph   ph                                 ph
  B|-------------------------------------------------------|
 F#|-------------------------------------------------------|
  D|-------------------------------------------------------|
  A|----<3>--<2>-----1-------------3-3-2-2-----<1b>--------|
  E|-2------------1-----1------------------1-1-------1-1---|
  B|-----------------------0-0--0--------------------1-1-0-|
  pm              .     .  . .  .  . . . . . .       . . 


     Riff 4 - (Guitar 2)

  B|-----------------------------------------------------------|
 F#|-----------------------------------------------------------|
  D|-----------------------------------------------------------|
  A|-----5"--4"------3"-------------5"--4"------3"-------------|
  E|-4"----------3"-------------4"----------3"------3"--1"--2"-|
  B|--------------------0-0-0-0--------------------------------|
  pm                    . . . .





     Riff 5 - (Guitar 1)

  B|-----------------------------------------------------------|-----------------------------------------------------------|
 F#|-----------------------------------------------------------|-----------------------------------------------------------|
  D|-----------------------------------------------------------|-----------------------------------------------------------|
  A|-----3"--2"------1"-------------3"--2"------1"-------------|-----3"--2"------1"-------------3"--2"------1"-------------|
  E|-2"----------1"------1"-----------------1"------1"---------|-2"----------1"------1"-----------------1"------1"---------|
  B|-------------------------1"-0"----------------------1-"-0"-|-------------------------1"-0"----------------------1-"-0"-|
   

     Riff 5 (Guitar 2)

  B|-----------------------------------------------------------|-----------------------------------------------------------|
 F#|-----------------------------------------------------------|-----------------------------------------------------------|
  D|-----------------------------------------------------------|--------------------------------5"--4"------3"-------------|
  A|-----3"--2"------1"-------------3"--2"------1"-------------|-----3"--2"------1"---------------------3"------3"---------|
  E|-2"----------1"------1"-----------------1"------1"---------|-2"----------1"------1"------------------------------------|
  B|-------------------------1"-0"----------------------1-"-0"-|-------------------------1"-0"----------------------1-"-0"-|
    




     Riff 7 - (Guitars 1 & 2)

  B|----------------------------------------------------|
 F#|----------------------------------------------------|
  D|----------------------------------------------------|
  A|----3"-2"----1"----------3"-2"----1"----------4h6h7-|
  E|-2"-------1"----1"-------------1"----1"-4h6h7-------|
  B|-------------------1"-0"----------------------------|
  pm .  .  .  .  .  .  .  .  .  .  .  .  .  . . . . . .   


     ? ? ? ? ? ?


     End - (Guitars 1 & 2)

  B|----------|
 F#|----------|
  D|----------|
  A|-6--6--5--|
  E|-4--4--5--|
  B|-4--4--3--|
Show more
sponsored links
sponsored links