• Song:

    Tequila

  • Artist:

    Champs

  • Album:

    25 All-Time Greatest Re...

Tequila by The Champs

This is just the guitar part, mostly because I'm tired of everyone saying that they're majors chords. WRONG.


e|---5-5--3--5-5--3-3-3---5-5--3--5--3--3-3-3---|
B|---6-6--4--6-6--4-4-4---6-6--4--6--4--4-4-4---|
G|o--5-5--3--5-5--3-3-3---5-5--3--5--3--3-3-3--o|
D|o--7-7--5--7-7--5-5-5---7-7--5--7--5--5-5-5--o|
A|----------------------------------------------|
E|----------------------------------------------|

There we go. Just play it. It sounds a lot better.

The outro just goes like this.

e|---5-5--3--5\-|
B|---6-6--4--6\-|
G|---5-5--3--5\-|
D|---7-7--5--7\-|
A|--------------|
E|--------------|
Show more