There are 2 types of this song... 1 is where the capo is on the 4th thret,
and the other is on the 2nd. im going to tab the one that has the capo on 
the 2nd thret (this version of the song can be found on chase coy's myspace profile) 

mostly got these from other tabs but some tabs are wrong.. i just corrected
them and it sounds exactly the same. This is my 1st tab EVER sooo sorry if 
its a bit wrong =D... hope you enjoy.

CAPO = Thret 2... TUNE = EADGbe

Intro 1
e|-----------------------|
b|----------1----1-------|
G|---0---0----0----0--0--|
D|---0h2---2----2----2---|  x2
A|-3---------------------|
E|-----------------------|



Verse 1 x2
e|-----------------------|
b|----------1----1-------|
G|---0---0----0----0--0--|
D|---0h2---2----2----2---|  
A|-3---------------------|
E|-----------------------|

e|-----------------------|
b|----------1----1-------|
G|------0-----0----0--0--|
D|--------0-----0----0---|  
A|--0h2------------------|
E|-3---------------------|

e|-----------------------|
b|-----1--1----1---------|
G|--0h2-2---2----2--2----|
D|------------3----3-----|  
A|-----------------------|
E|-1---------------------|

e|-----------------------|
b|----------1----1-------|
G|------0-----0----0--0--|
D|--------0-----0----0---|  
A|--0h2------------------|
E|-3---------------------|



Chorus 1 
e|-----3-----------------|
b|--1--0------1----------|
G|--2--0--0h2---2--------|
D|--2--0----------3------|  x3
A|-0---2-----------------|
E|----3--1---------------|

e|-------3---1---3-------|
b|---1---0---1---0-------|
G|---2---0---2---0-------|
D|---2---0---3---0-------|  
A|-0-----2---3---0-------|
E|-----3---1---3---------|

Intro 2
e|-----------------------|
b|----------1----1-------|
G|---0---0----0----0--0--|
D|---0h2---2----2----2---|  x2
A|-3---------------------|
E|-----------------------|



Verse 2 x2
e|-----------------------|
b|----------1----1-------|
G|---0---0----0----0--0--|
D|---0h2---2----2----2---|  
A|-3---------------------|
E|-----------------------|

e|-----------------------|
b|----------1----1-------|
G|------0-----0----0--0--|
D|--------0-----0----0---|  
A|--0h2------------------|
E|-3---------------------|

e|-----------------------|
b|-----1--1----1---------|
G|--0h2-2---2----2--2----|
D|------------3----3-----|  
A|-----------------------|
E|-1---------------------|

e|-----------------------|
b|----------1----1-------|
G|------0-----0----0--0--|
D|--------0-----0----0---|  
A|--0h2------------------|
E|-3---------------------|



Chorus 2 
e|-----3-----------------|
b|--1--0------1----------|
G|--2--0--0h2---2--------|
D|--2--0----------3------|  x3
A|-0---2-----------------|
E|----3--1---------------|

e|-------3---1---3-------|
b|---1---0---1---0-------|
G|---2---0---2---0-------|
D|---2---0---3---0-------|  
A|-0-----2---3---0-------|
E|-----3---1---3---------|

e|-----------------------|
b|-------1------1---1----|
G|---0------0---0---0----|
D|---0h2--2-----2---0----|  
A|-3----------3---2------|
E|-----------------------|



Bridge 1
e|--------------------------------------------|
b|-----1----------1----------1----------1-----|
G|-------2-2---------2----------2---0h2----2--|
D|---2----2---------2----0h2---2---------3----|
A|-0----------0h2------3----------------------|
E|-----------3--------------------1-----------|

e|--------------------------------------------------|
b|-----1----------1-----------1----1-----1----------|
G|-------2-2---------2----0h2--------2-----2---2----|
D|---2----2---------2------------3-----3-----3------|
A|-0----------0h2-----------------------------------|
E|-----------3----------1---------------------------|

e|-----------------------------------1------------------------|
b|-----1----------1------1---1---1---0-------1--1----1--------|
G|-------2-2---------2---0---0---2---0---0h2------2----2---2--|
D|---2----2---------2----2---0---2---0---------3----3----3----|
A|-0----------0h2------3---2---0-----0------------------------|
E|-----------3---------------------3---1----------------------|

e|--------------------------|
b|-------1---1-----1--------|
G|-------------0-----0---0--|
D|---------0-----0-----0----|
A|---0h2--------------------|
E|-3------------------------|




Chorus 3 
e|-----3-----------------|
b|--1--0------1----------|
G|--2--0--0h2---2--------|
D|--2--0----------3------|  x3
A|-0---2-----------------|
E|----3--1---------------|

e|-------3---1---3-------|
b|---1---0---1---0-------|
G|---2---0---2---0-------|
D|---2---0---3---0-------|  
A|-0-----2---3---0-------|
E|-----3---1---3---------|



Intro/outro 2
e|-------------------------------------------|
b|---------1----1---------------1------------|
G|---0--0----0----0---0-----------0---0------|
D|---0h2--2----2------------0h2-----2--------|  
A|-3----------------3-----3-------------3~~--|
E|-------------------------------------------|

LYRICS:
Everytime i see you're smile
It makes my heart beat fast.
I know its much to soon to tell
I'm Hopeing this will last.

Coz, I just always wanna have you right here by my side.
The futures near but never certan,
Atleast stay here for just tonight.

I Must have done somthing right,
To deserve you in my life.
I Must have done somthing right
Along the way.

I Juts cant get you off my mind
And Why would i even try?
Even when i close my eyes
I Dream about you all the time.

Coz, I just always wanna have you right here by my side.
The futures near but never certan,
Atleast stay here for just tonight.

I Must have done somthing right,
To deserve you in my life.
I Must have done somthing right
Along the way.

And Even if the moon fell down tonight.
There'd be nothing to worry about at all,
Because You make the whole world shine.
As long as ur here everything will be all right...

I Must have done somthing right,
To deserve you in my life.
I Must have done somthing right
Along the way.

Thanks for choosing this tab =D

ADD ME.. www.myspace.com/Stephen_takacs
Show more