sponsored links
-----------------------------------------------------------------------------
This file is the author's own work and represents their interpretation of the
song.You may only use this file for private study, scholarship, or research.
-----------------------------------------------------------------------------
SONG: Enes
BAND: Cheese
ALBUM: Pilipinas
TRANSCRIBED BY: Ron Moncada (rv_coc@hotmail.com)
website: http://justsayemo.musicdot.com ; http://cocband.musicdot.com

Tuning: Tune guitar 2 1/2 step down then drop d (A E A D F# B).

Intro: 
B ------  ------------------------------------------
F#------  ------------------------------------------
D ------  -3-3-3-4-4-4-2-----2---------4------------4x
A -1-1--  -3-3-3-4-4-4-2-0-3-2-3-0-3-3-4-3-3-3-3-3--
E -1-1--  -1-1-1-2-2-2-0-0-3-0-3-0-3-3-2-3-3-3-3-3--
A -1-1--  ---------------0-3---3-0-3-3---3-3-3-3-3--

Verse:
B -----------------------------------
F#-----------------------------------
D -2-2-2-2-2-------------------------4x
A -2-2-2-2-2--3-3-0-2-3-0-2-3-3-3-3--
E -0-0-0-0-0--3-3-0-2-3-0-2-3-3-3-3--
A ------------3-3-0-2-3-0-2-3-3-3-3--
Daughters of Zion....

B ---------  ----------------------------
F#---------  ----------------------------
D ---------  ----------------------------4x
A ---------  ----------------------------
E --3-3----  -3---3h5---3---3---2/3-3----
A ------0--  ---0-----0---0---0-------0--
Makes me wonder...

repeat verse

Chorus:

B -------------------------
F#-------------------------
D -------------------------
A ------------1-1-0-1h2-2--8x
E ------2-----1-1-0-1h2-2--
A --1h2---2p1-1-1-0-1h2-2--

repeat intro & verse & chorus

Outro:
B -----------------------------------
F#-----------------------------------
D -----------------------------------
A --------------------0-1-2-0-1-2-2--4x
E ----2---2h3---------0-1-2-0-1-2-2--
A --0---0-----0-2-0-1-0-1-2-0-1-2-2--


B -------
F#-------
D -------
A ---0---
E ---0---
A ---0---

_end_
Show more
sponsored links
sponsored links