• Song:

    Face To The Floor

  • Artist:

    Chevelle

  • Album:

    Face To The Floor

-------------------------------------------------------------------------------
			     Face to the Floor - Chevelle
-------------------------------------------------------------------------------

Tabbed By : Pete Kelley
e-mail: pfkelley9@yahoo.com

Tuning:low to high C, F, D, G ( really don't need the two higher strings )

I didn't put the times you repeat each section but it's pretty straight forward, 
everything else should be in order and correct. TURN IT UP!

Intro...bass comes in @ 11 secs

G|-----------------------------|
D|-----------------------------|
F|-------75-----------75-------|
C|-0-0530--75-3-0-0530--75-3-0-|

Pre Chorus

G|-----------------------------------------|
D|-----------------------------------------|
F|-----------------------------------------|
C|-0-7-8-10-0-7-8-10-0-7-8-10-888810101010-|

Chorus

G|-----------------------------|
D|-----------------------------|
F|-------75-----------75-------|
C|-0-0530--75-3-0-0530--75-3-0-|

Verse

G|-----------------------------|
D|-----------------------------|
F|-------75-----------75-------|
C|-0-0530--75-3-0-0530--75-3-0-|

Pre Chorus

G|-----------------------------------------|
D|-----------------------------------------|
F|-----------------------------------------|
C|-0-7-8-10-0-7-8-10-0-7-8-10-888810101010-|

Chorus

G|-----------------------------|
D|-----------------------------|
F|-------75-----------75-------|
C|-0-0530--75-3-0-0530--75-3-0-|


Bridge

G|--------------------------------------|
D|--------------------------------------|
F|------------------75------------------|
C|-53--53--53-0-0530--75-3-53--53--53-5-|

G|--------------------|
D|--------------------|
F|-57-57-57-57-57-77--|
C|------------------0-|

G|-----------------|
D|-----------------|
F|-7-5-------------|
C|-----8-7-5-7-8-7-|

G|--------------------|
D|--------------------|
F|-57-57-57-57-57-77--|
C|------------------0-|

G|-----------------|
D|-----------------|
F|-7-5-------------|
C|-----8-7-5-7-8-7-|

G|------------|
D|------------|
F|------------|
C|-53--53--53-|

G|-----------------------------------------|
D|-----------------------------------------|
F|-----------------------------------------|
C|-0-7-8-10-0-7-8-10-0-7-8-10-888810101010-|

Chorus

G|-----------------------------|
D|-----------------------------|
F|-------75-----------75-------|
C|-0-0530--75-3-0-0530--75-3-0-|

Ending

G|---------------|
D|---------------|
F|---------------|
C|-555555555-3-0-|
Show more