• Song:

    Paint The Seconds

  • Artist:

    Chevelle

  • Album:

    Vena Sera

--------------------------------------------------------------------
                   Paint The Seconds - Chevelle
--------------------------------------------------------------------
Song: Paint The Seconds
Tabbed By: Ultimate Bass T

Tuning: Drop D


Intro
E|-12-12-12-12-12--15-15--10-10-|  |-8-8-8-8-8--10-10-10-|
D|------------------------------|x3|---------------------|
A|------------------------------|  |---------------------|
D|------------------------------|  |---------------------|

Verse
E|-0-0-0-0-0-0--7-7--5-5--0-0-3-3-3-3-3-3---------3-|
D|----------------------------------------3-3-3-3---| (repeat) 
A|--------------------------------------------------|
D|--------------------------------------------------|

PreChorus
E|--------------------------------------------------------|
D|--------------------------------------------------------| 
A|--------------------------------------------------------|
D|-0h10-10--10--10p7-0h10--10-10-0-10-13-10--0-10-0-13-11-|

--------------------------------------------------------------------
Chorus (same as Intro)
Verse
Bridge (same as PreChorus)
Chorus
--------------------------------------------------------------------

Outro
E|-0-7-5-0-3---0-7-5-0-3---0-7-5-0-3---------0-|
D|-----------3-----------3------------0---3----|
A|---------------------------------------------|
D|---------------------------------------------|


-----------Enjoy...Make sure to comment-----------------------------
Show more