• Song:

    Panic Prone

  • Artist:

    Chevelle

  • Album:

    THIS KIND OF THINKING

Song: Panic Prone
Artist: Chevelle
Album: This Type of Thinking (Could Do Us In)

As confusing as this looks, its not very hard, just listen to the bass timing and youll 
Watching DEAN play this on his 4 string bass, this is what i hear:

Come In With Drums:

Verse 1
|------------------------------------------------------------------------------------------|
|------------------------------------------------------------------------------------------|
Eb|----------------------------------------------------------------------------------------|
Bb|-9-999999-11/5-555555\9-999999-11/5-555555\9-999999-11/5-5555/7-7777/9-9999999\5-555555-|

Chorus
|-----------------------------------------------------------------|
|-----------------------------------------------------------------|
Eb|---------------------------------------------------------------|
Bb|-0-0000(x16)-9-9999(x16)-7-7777-5-5555(x16)-7-7777(x12)-8-8887-|

Verse 2: Part 1
|------------------------------------------------------------------------------------------------------|
|------------------------------------------------------------------------------------------------------|
Eb|----------6-8--------------------6-8-----11~--11h-10h-11h-10h----------6-8--------------------------|
Bb|-9--9-9-9-----5-5-0h5-5\9--9-9-9-----5-5----------------------9--9-9-9-----5~-7~-9~-9-99999-5-55555-|

Verse 2: Part 2
|--------------------------------------------------------------------------------------------------------------|
|--------------------------------------------------------------------------------------------------------------|
Eb|----------6-8--------------------------------------------6-8----------------------------11~-11h-10h-11h-10h-|
Bb|-9--9-9-9-----5-5-0h5-5\9--9-9-9-9--5--5-5-5-5--9--9-9-9-----5~-7~-9~-9--9-9-9\5--5-5-5---------------------|

Bridge (Hammer-On the first 9's after the "5/7"s)
  |-----------------------------------------------------------------------|
  |-----------------------------------------------------------------------|
Eb|-----------------------------------------------------------------------|
Bb|--5/7-9-7h9-9-9---5/7-9-7h9-9-9-7-5-5/12-12-12-12--5/12-12-12-11-11-11-|

Outro (x3)                         (4th Time)
  |-----------------------------||------------------|
  |-----------------------------||------------------|
Eb|-----------------------------||------------------|
Bb|-9-9999-9-9999-5-5555-5-5555-||-9-9999-9-9999-5~-|

Order:
       Verse 1
       Chorus
       Verse 2: Part 1
       Verse 2: Part 2
       Chorus (X2)
       Bridge (X4)
       Chorus (X2)
       Outro

Pretty sure this is dead on, if not, pretty close. Any questions or comments feel free 
ask.
Show more