• Song:

    Panic Prone

  • Artist:

    Chevelle

  • Album:

    THIS KIND OF THINKING

Panic Prone

  I didn't list the timing, or when to strum each chord, but listen to the song and 
know.

  VERSE

  E|-3-------------------|
  B|-3-------------------|
  G|-3--3----------------|
  D|-5--5----------------|
  A|-5--6----------------|   x2
  E|-3--0----------------|

  VERSE MIX (Play this after playing the Verse 2 times.

  E|-3-------------------|
  B|-3-------------------|
  G|-3--3--------3-------|
  D|-5--5--3--5--5-------|
  A|-5--6--3--5--6-------|
  E|-3--0--1--3--0-------|

VERSE

  E|-3-------------------|
  B|-3-------------------|
  G|-3--3----------------|
  D|-5--5----------------|
  A|-5--6----------------|   x2
  E|-3--0----------------|

VERSE MIX

  E|-3-------------------|
  B|-3-------------------|
  G|-3--3--------3-------|
  D|-5--5--3--5--5-------|
  A|-5--6--3--5--6-------|
  E|-3--0--1--3--0-------|

                                                                              CHORUS

  E|---------------------|
  B|-3-------------------|
  G|-3-----3-------------|
  D|-3--5--5--3-4-5------|
  A|-1--5--6--3-4-5------|
  E|-0--3--0--1-2-3------|

  VERSE

  E|-3-------------------|
  B|-3-------------------|
  G|-3--3----------------|
  D|-5--5----------------|
  A|-5--6----------------|
  E|-3--0----------------| x2

VERSE MIX

  E|-3-------------------|
  B|-3-------------------|
  G|-3--3--------3-------|
  D|-5--5--3--5--5-------|
  A|-5--6--3--5--6-------|
  E|-3--0--1--3--0-------|

VERSE

  E|-3-------------------|
  B|-3-------------------|
  G|-3--3----------------|
  D|-5--5----------------|
  A|-5--6----------------|
  E|-3--0----------------| x2

VERSE MIX

  E|-3-------------------|
  B|-3-------------------|
  G|-3--3--------3-------|
  D|-5--5--3--5--5-------|
  A|-5--6--3--5--6-------|
  E|-3--0--1--3--0-------|

CHORUS

  E|---------------------|
  B|-3-------------------|
  G|-3-----3-------------|
  D|-3--5--5--3-4-5------|
  A|-1--5--6--3-4-5------|
  E|-0--3--0--1-2-3------|


  BRIDGE

  E|---------------------|
  B|---------------------|
  G|-------3-------------|
  D|-3--5--5-------------|
  A|-3--5--6-------------| x4
  E|-1--3--0-------------|

CHORUS

  E|---------------------|
  B|-3-------------------|
  G|-3-----3-------------|
  D|-3--5--5--3-4-5------|
  A|-1--5--6--3-4-5------|
  E|-0--3--0--1-2-3------|    x2

  VERSE

  E|-3-------------------|
  B|-3-------------------|
  G|-3--3----------------|
  D|-5--5----------------|
  A|-5--6----------------|
  E|-3--0----------------| x4
Show more