-----------------------------------------------------------------------------
			     Point #1 - Chevelle
-----------------------------------------------------------------------------
Tabbed by: Scott
Email: fishofthedeep@yahoo.com

This is my fist tab i hope you enjoy! I am pretty certain this is all correct.

Tuning: D G C F A D

Intro/Verse: (clean) this is the strumming pattern. listen to the song to figure 
out when to add the 133 chords
e|--------------------------------------------------------------------------|
B|--------------------------------------------------------------------------|
G|--2-2-2-2-2-x-2-2-2-2-2-2-2-x-2-2-2-2-2-2-2-x-2-2-2-2-2-2-----------------|
D|--2-2-2-2-2-x-2-2-2-2-2-2-2-x-2-2-2-2-2-2-2-x-2-2-2-2-2-2-3---------------|
A|--0-0-0-0-0-x-0-0-0-0-0-0-0-x-0-0-0-0-0-0-0-x-0-0-0-0-0-0-3---------------|
E|----------------------------------------------------------1---------------|

Chorus: (distortion) this strum pattern x2         | then with these chords:
e|-------------------------------------------------|-------|--------|-------|
B|-------------------------------------------------|-------|--------|-------|
G|--10---10-10-10---10-10-10-10-10-10-10---10-10---|---7---|--------|---7---|
D|--10---10-10-10---10-10-10-10-10-10-10---10-10---|---7---|---10---|---7---|
A|--8----8--8--8----8--8--8--8--8--8--8----8--8----|---5---|---10---|---5---|
E|-------------------------------------------------|-------|---8----|-------|

e|--------------------------------------------------------------------------|
B|--------------------------------------------------------------------------|
G|--------------------------------------------------------------------------|
D|-12^-2-x-2-2-2--x-2-2-2--x-2-2-2--x-2-2-2--x-2-2-2--x-2-2-2--x-2-2-2h3-3--|
A|-----2-x-2-2-2--x-2-2-2--x-2-2-2--x-2-2-2--x-2-2-2--x-2-2-2--x-2-2-2h3-3--|
E|-----0-x-0-0-0--x-0-0-0--x-0-0-0--x-0-0-0--x-0-0-0--x-0-0-0--x-0-0-0h1-1--|

Bridge:
e|------------------------------------------0-0-0-0-------------------------|
B|------------------------------------------0-0-0-0-------------------------|
G|--5---5-5-5---5-5-5---5-5-5---5-5---------0-0-0-0-------------------------|
D|--5---5-5-5---5-5-5---5-5-5---5-5-2---2-2-2-2-2-2---2---2-2-2h5-5-5-------|
A|--3---3-3-3---3-3-3---3-3-3---3-3-2---2-2-2-2-2-2---2---2-2-2h5-5-5-------|
E|----------------------------------0---0-0-0-0-0-0---0---0-0-0h3-3-3-------|

Second Part Of Bridge Leads Into Solo:
e|--------------------------------------------------------------------------|
B|--------------------------------------------------------------------------|
G|--5---5-5-5---5-5-5---5-5-5-5-5-------------------------------------------|
D|--5---5-5-5---5-5-5---5-5-5-5-5-7~----------------------------------------|
A|--3---3-3-3---3-3-3---3-3-3-3-3-7~----------------------------------------|
E|--------------------------------5~----------------------------------------|

Solo: Play this twice. He uses a wah but I've found a chorus effect works somewhat too though
e|--------------------------------------------------------------------------|
B|--------------------------------------------------------------------------|
G|--------------------------------------------------------------------------|
D|--------------------------------------------------------------------------|
A|--10-10-10-8-8-8-8--8-8-8-8-8-8-8--10-10-10-8-8-8-8--8-8-8-8-8-8-8--------|
E|--------------------------------------------------------------------------|

e|--------------------------------------------------------------------------|
B|--------------------------------------------------------------------------|
G|--------------------------------------------------------------------------|
D|--------------------------------------------------------------------------|
A|--8----12-12-12-12-12--12-12-12-12-12-12-12--12-12-12-12-12-12-12---------|
E|----10--------------------------------------------------------------------|

e|--------------------------------------------------------------------------|
B|--------------------------------------------------------------------------|
G|--------------------------------------------------------------------------|
D|--------------------------------------------------------------------------|
A|--12-12-12-12-12-12-12----------------------------------------------------|
E|--------------------------------------------------------------------------|

After The Solo Play The Chorus Riff Again

Outro:
e|--------------------------------------------------------------------------|
B|--------------------------------------------------------------------------|
G|--------------------------------------------------------------------------|
D|--12^-2--x-2-2-2--x-2-2-2--x-2-2-2--x-2-2-2--x-2-2-2--x-2-2-2--x-2-2-2--x-|
A|------2--x-2-2-2--x-2-2-2--x-2-2-2--x-2-2-2--x-2-2-2--x-2-2-2--x-2-2-2--x-|
E|------0--x-0-0-0--x-0-0-0--x-0-0-0--x-0-0-0--x-0-0-0--x-0-0-0--x-0-0-0--x-|

e|--------------------------------------------------------------------------|
B|--------------------------------------------------------------------------|
G|---------*4-4-4-4*-----*4-4-4-4*----*4-4-4-4*----*4-4-4-4*--------------5-|
D|--2-2-2------------2-------------2------------2------------2-h-5--5--3--5-|
A|--2-2-2------------2-------------2------------2------------2-h-5--5--3--3-|
E|--0-0-0------------0-------------0------------0------------0-h-3--3--1----|



| ^  bend
| h  hammer-on
| ~  let ring
| *  harmonic
| x  Mute note
=============================================================================
Show more