band: CheVelle
song: Point #1
tabbed by: MetalSlayer09
e-mail: 09bpott@gmail.com

alright second tab and thought I'd make it CheVelle again, couldn't find a great tab for 
so i thought I'd make my own, I think this is quite accurate
any suggestions on how to fix problems tho you can send to me on my e-mail

tuning: drop d

intro (distortion)

e-----------------------------------------------------------------------|
b-----------------------------------------------------------------------|
g-----------------------------------------------------------------------|
d-----------------------------------------------------------------------|
a-----------------------------------------------------------------------|
D-0-0-0-0-X-0-0-0-0-0-X-0-0-0-0-0-X-0-0-0-0-0-X-0-0-0-0-0-X-0-0-0-0-0-X-|
 pm---------------------------------------------------------------------|

e-------------------------]----------------------------------------------|
b-------------------------]----------------------------------------------|hold_____)-]
g-------------------------]-99999999999999999999999999999999999-9b-9-9---|
d-------------------------]----------------------------------------------|
a-------------------------]-77777777777777777777777777777777777-7b-7-7---|
D-0-0-0-0-0-X-0-0-0-0-0-X-]----------------------------------------------|
 pm----------------------------------------------------------------------|

e-----------------------------------------------------------------------|
b-----------------------------------------------------------------------|
g-----------------------------------------------------------------------|
d-----------------------------------------------------------------------|
a-----------------------------------------------------------------------|
D-0-0-0-0-X-0-0-0-0-0-X-0-0-0-0-0-X-0-0-0-0-0-X-0-0-0-0-0-X-0-0-0-0-0-X-|
 pm---------------------------------------------------------------------|

e-----------------------]-------------------------------------------|
b-----------------------]-------------------------------------------|-]
g-----------------------]-----999999999999999999999999999999999999--|
d-----------------------]-------------------------------------------|
a-----------------------]-7/9-777777777777777777777777777777777777--|
D-0-0-0-0-0-X-0-0-0-0-0-]-------------------------------------------|
  pm----------------------------------------------------------------|

e------------------------------------------------------------------------------|
b------------------------------------------------------------------------------|
g------------------------------------------------------------------------------|
d-0-0-0-0-0-0--0-0-0-0-0-0--0-0-0-0-0-0--0-0-0-0-0-0--0-0-0-0-0-0--0-0-0-0-0-0-|
a-0-0-0-0-0-0--0-0-0-0-0-0--0-0-0-0-0-0--0-0-0-0-0-0--0-0-0-0-0-0--0-0-0-0-0-0-|
D-0-0-0-0-0-0--0-0-0-0-0-0--0-0-0-0-0-0--0-0-0-0-0-0--0-0-0-0-0-0--0-0-0-0-0-0-|

e--------------------------]
b--------------------------]
g--------------------------]
d-0-0-0-0-0-0--0-0-0-0-0-0-]
a-0-0-0-0-0-0--0-0-0-0-0-0-]
D-0-0-0-0-0-0--0-0-0-0-0-0-]

verse (clean)
                                                it seems  i've gained
e-----------------------------------------------------------------------|
b-----------------------------------------------------------------------|
g-----------------------------------------------------------------------|
d-----------------------------------------------------------------------|
a-5-5-5-5-x-5-5-5-5-5-x-5-5-5-5-5-x-5-5-5-5-5-x-5-5-5-5-5-x-5-5-5-5-5-x-|
D-5-5-5-5-X-5-5-5-5-5-x-5-5-5-5-5-x-5-5-5-5-5-x-5-5-5-5-5-x-5-5-5-5-5-x-|

 the world  but have nothing
e--------------------------------------------------------------------------|
b--------------------------------------------------------------------------|
g--------------------------------------------------------------------------|
d--------------------------------------------------------------------------|
a-5-5-5-5-5-x-5-5-5-1-1-1----5-5-5-5-x-5-5-5-5-5-x-5-5-5-5-5-x-5-5-5-5-5-x-|
D-5-5-5-5-5-x-5-5-5-1-1-1----5-5-5-5-x-5-5-5-5-5-x-5-5-5-5-5-x-5-5-5-5-5-x-|

 to keep tabs upon  this loss   isn't wasted time
e------------------------------------------------------------------------|
b------------------------------------------------------------------------|
g------------------------------------------------------------------------|
d------------------------------------------------------------------------|
a-5-5-5-5-5-x-5-5-5-5-5-x-5-5-5-5-5-x-5-5-5-1-1-1--5-5-5-5-x-5-5-5-5-5-x-|
D-5-5-5-5-5-x-5-5-5-5-5-x-5-5-5-5-5-x-5-5-5-1-1-1--5-5-5-5-x-5-5-5-5-5-x-|

                          face   op- por-tun -ities        to recognize
e-------------------------------------------------------------------------|
b-------------------------------------------------------------------------|
g-------------------------------------------------------------------------|
d-------------------------------------------------------------------------|
a-5-5-5-5-5-x-5-5-5-5-5-x-5-5-5-5-5-x-5-5-5-5-5-x-5-5-5-5-5-x-5-5-5-1-1-1-|
D-5-5-5-5-5-x-5-5-5-5-5-x-5-5-5-5-5-x-5-5-5-5-5-x-5-5-5-5-5-x-5-5-5-1-1-1-|

   now we have the time                         rebuke             don't ch-
e---------------------------------------------------------------------------|
b---------------------------------------------------------------------------|
g---------------------------------------------------------------------------|
d---------------------------------------------------------------------------|
a-5-5-5-5-x-5-5-5-5-5-x-5-5-5-5-x-5-5-5-5-5-x-5-5-5-5-5-x-5-5-5-5-5-x-5-5-5-|
D-5-5-5-5-x-5-5-5-5-5-x-5-5-5-5-x-5-5-5-5-5-x-5-5-5-5-5-x-5-5-5-5-5-x-5-5-5-|

 -ke on this twisted dream                      cause   he'll   say
e----------------------------------------------------------------------]
b----------------------------------------------------------------------]
g----------------------------------------------------------------------]
d----------------------------------------------------------------------]
a-5-5-x-5-5-5-1-1-1------5-5-5-5-x-5-5-5-5-5-x-5-5-5-5-5-x-5-5-5-5-5-x-]
D-5-5-x-5-5-5-1-1-1------5-5-5-5-x-5-5-5-5-5-x-5-5-5-5-5-x-5-5-5-5-5-x-]

chorus (distortion)

  pay for it                  the whole sum
e-------------------------(1s and 10s------------------------------------------|
b------------------------------------------------------------------------------|
g------------------------------------------------------------------------------|
d-11111111111111111111111111111111-101010101010101010101010101010101010101010--|
a-11111111111111111111111111111111-101010101010101010101010101010101010101010--|
D-11111111111111111111111111111111-101010101010101010101010101010101010101010--|

                   he'll say magnified pain is point # 1
e------------------------------------------------------------------------------|
b------------------------------------------------------------------------------|
g------------------------------------------------------------------------------|
d-1010101010101010101010-11111111111111111111111111111111-10101010101010101010-|
a-1010101010101010101010-11111111111111111111111111111111-10101010101010101010-|
D-1010101010101010101010-11111111111111111111111111111111-10101010101010101010-|

                                  he'll say pay for it            the whole
e-------------------------------------------------------------------------------|
b-------------------------------------------------------------------------------|
g-------------------------------------------------------------------------------|
d-10101010101010101010101010101010101010101010-11111111111111111111111111111111-|
a-10101010101010101010101010101010101010101010-11111111111111111111111111111111-|
D-10101010101010101010101010101010101010101010-11111111111111111111111111111111-|

  sum                                                         to magnify
e----------------------------------------------------------------------------|
b----------------------------------------------------------------------------|
g------------------------------------------------------------------111111111-|
d-1010101010101010101010101010101010101010101010101010101010101010-111111111-|
a-1010101010101010101010101010101010101010101010101010101010101010-111111111-|

   pain       is point number 1
e----------------------------------------------------------------------------|
b----------------------------------------------------------------------------|
g----------------------------------------------------------------------------|
d-11111111111111111111111-10101010101010101010101010101010101010101010101010-|
a-11111111111111111111111-10101010101010101010101010101010101010101010101010-|
D-11111111111111111111111-10101010101010101010101010101010101010101010101010-|

e----------------]
b----------------]
g----------------]
d-10101010101010-]
a-10101010101010-]
D-10101010101010-]

verse 2
same as first verse

chorus 2
play 1st chorus

‘Cause he’ll say pay for it, yeah the whole sum
To magnify pain, is point number one
We need a healing aloe plant
Your soothing hands run down my back

solo
play with wah
                            X2
e-------------------------------------------------------------]
b-------------------------------------------------------------]
g----------------------------88888888888888888888888888888888-]
d-------------------------------------------------------------]
a-88810108888888810108888888866666666666666666666666666666666-]
D-------------------------------------------------------------]

play half the chorus

We need a healing aloe plant
Your soothing hands run down my back

outro

e--------------------------------------------------------------------|
b--------------------------------------------------------------------|
g---------------------------------------------------7*7*7*----7*7*7*-|
d-0000-00000-00000-00000-00000-00000-00000-00000-00-7*7*7*-00-7*7*7*-|
a-0000-00000-00000-00000-00000-00000-00000-00000-00--------00--------|
D-0000-00000-00000-00000-00000-00000-00000-00000-00--------00--------|

e--------------------------------------------------------------]
b--------------------------------------------------------------]
g----7*7*7*----7*7*7*----7*7*7*----7*7*7*----7*7*7*------------]
d-00-7*7*7*-00-7*7*7*-00-7*7*7*-00-7*7*7*-00-7*7*7*-0-1-1-1-8\-]
a-00--------00--------00--------00--------00--------0-1-1-1-8\-]
D-00--------00--------00--------00--------00--------0-1-1-1-8\-]

legend
\ or / slide
pm palm mute
* harmonic
x mute
. staccato note
] bar
b bend

alright I guess that's about it, thanks for checkin out the tab and please give me some 
ratings friends! and if ya got any suggestions like i said e-mail me
(insert witty comment here)
Show more