Band: Chevelle
Song: Point #1
Album: Point #1
Tunning: D G C F A D
Tabbed By: slipknot345@gmail.com


Intro:

D|------------------------------------------------------------|
A|-------------------------------------------------------(x2)-|
F|------------------------------------------------------------|
C|-2-2-2-2-2-2----2-2-2-2-2-2----2-2-2-2-2-2----2-2-2-2-2-2---|
G|-0-0-0-0-0-0-x--0-0-0-0-0-0-x--0-0-0-0-0-0-x--0-0-0-0-0-0-x-|
D|-------------x--------------x--------------x--------------x-|


Verse #1:

D|------------------------------------------------------------|
A|------------------------------------------------------------|
F|------------------------------------------------------------|
C|-2-2-2-2-2-2----2-2-2-2-2-2----2-2-2-2-2-2----3-3-3-3-3-3---|
G|-0-0-0-0-0-0-x--0-0-0-0-0-0-x--0-0-0-0-0-0-x--3-3-3-3-3-3---|
D|-------------x--------------x--------------x--1-1-1-1-1-1---|
                                                                -x4
D|------------------------------------------------------------|
A|------------------------------------------------------------|
F|------------------------------------------------------------|
C|-2-2-2-2-2-2----2-2-2-2-2-2----2-2-2-2-2-2----2-2-2-2-2-2---|
G|-0-0-0-0-0-0-x--0-0-0-0-0-0-x--0-0-0-0-0-0-x--0-0-0-0-0-0-x-|
D|-------------x--------------x--------------x--------------x-|


Chorus #1: (x4)

D|------------------------------------------------------------------|
A|------------------------------------------------------------------|
F|----------------------------------7-7-7-7-7-7-7-7-7-7-7-7-7-7-7-7-|
C|-3-3-3-3-3-3-3-3-3-3-3-3-3-3-3-3--7-7-7-7-7-7-7-7-7-7-7-7-7-7-7-7-|
G|-3-3-3-3-3-3-3-3-3-3-3-3-3-3-3-3--5-5-5-5-5-5-5-5-5-5-5-5-5-5-5-5-|
D|-1-1-1-1-1-1-1-1-1-1-1-1-1-1-1-1----------------------------------|


Pre-Verse:

D|------------------------------------------------------------|
A|-------------------------------------------------------(x2)-|
F|------------------------------------------------------------|
C|-2-2-2-2-2-2----2-2-2-2-2-2----2-2-2-2-2-2----2-2-2-2-2-2---|
G|-0-0-0-0-0-0-x--0-0-0-0-0-0-x--0-0-0-0-0-0-x--0-0-0-0-0-0-x-|
D|-------------x--------------x--------------x--------------x-|


Verse #2:

D|------------------------------------------------------------|
A|------------------------------------------------------------|
F|------------------------------------------------------------|
C|-2-2-2-2-2-2----2-2-2-2-2-2----2-2-2-2-2-2----3-3-3-3-3-3---|
G|-0-0-0-0-0-0-x--0-0-0-0-0-0-x--0-0-0-0-0-0-x--3-3-3-3-3-3---|
D|-------------x--------------x--------------x--1-1-1-1-1-1---|
                                                                -x4
D|------------------------------------------------------------|
A|------------------------------------------------------------|
F|------------------------------------------------------------|
C|-2-2-2-2-2-2----2-2-2-2-2-2----2-2-2-2-2-2----2-2-2-2-2-2---|
G|-0-0-0-0-0-0-x--0-0-0-0-0-0-x--0-0-0-0-0-0-x--0-0-0-0-0-0-x-|
D|-------------x--------------x--------------x--------------x-|


Chorus #2:

D|-------------------------------------------------------------(x4)-|
A|------------------------------------------------------------------|
F|----------------------------------7-7-7-7-7-7-7-7-7-7-7-7-7-7-7-7-|
C|-3-3-3-3-3-3-3-3-3-3-3-3-3-3-3-3--7-7-7-7-7-7-7-7-7-7-7-7-7-7-7-7-|
G|-3-3-3-3-3-3-3-3-3-3-3-3-3-3-3-3--5-5-5-5-5-5-5-5-5-5-5-5-5-5-5-5-|
D|-1-1-1-1-1-1-1-1-1-1-1-1-1-1-1-1----------------------------------|

D|-------------------------------------------------------------------|
A|-------------------------------------------------------------------|
F|----------------------------------7-7-7-7-7-7-7-7-7-7-7-7-7-7-7-7b-|
C|-3-3-3-3-3-3-3-3-3-3-3-3-3-3-3-3--7-7-7-7-7-7-7-7-7-7-7-7-7-7-7----|
G|-3-3-3-3-3-3-3-3-3-3-3-3-3-3-3-3--5-5-5-5-5-5-5-5-5-5-5-5-5-5-5----|
D|-1-1-1-1-1-1-1-1-1-1-1-1-1-1-1-1-----------------------------------|


Pre-Bridge:

D|----------------------------------------------------|
A|----------------------------------------------------|
F|----------------------------------------------------|
C|-2-2-2-2-2-2--2-2-2-2-2-2--2-2-2-2-2-2--2-2-2-2-2-2-|
G|-2-2-2-2-2-2--2-2-2-2-2-2--2-2-2-2-2-2--2-2-2-2-2-2-|
D|-0-0-0-0-0-0--0-0-0-0-0-0--0-0-0-0-0-0--0-0-0-0-0-0-|

D|------------------------------------------------------|
A|------------------------------------------------------|
F|------------------------------------------------------|
C|-2-2-2-2-2-2--2-2-2-2-2-2--2-2-2-2-2-2--2-2-2-2-5-5---|
G|-2-2-2-2-2-2--2-2-2-2-2-2--2-2-2-2-2-2--2-2-2-2-5-5---|
D|-0-0-0-0-0-0--0-0-0-0-0-0--0-0-0-0-0-0--0-0-0-0-3-3-0-|


Bridge:

D|----------------------------------------------------------(x3)-|
A|-------------------------------------------0-------------------|
F|-------------------------------------------0-------------------|
C|-10----101010----10----101010-----2----2-2-------2-2-2-2-5-5---|
G|-10----101010----10----101010-----2----2-2-------2-2-2-2-5-5---|
D|--8-----8-8-8-----8-----8-8-8-----0----0-0-------0-0-0-0-3-3-0-|

D|--------------------------------------|
A|--------------------------------------|
F|--------------------------------------|
C|-10----101010----10----101010-----5-5-|
G|-10----101010----10----101010-----5-5-|
D|--8-----8-8-8-----8-----8-8-8-----3-3-|

D|----------------------------------------------------------------------------------------------|
A|----------------------------------------------------------------------------------------------|
F|----------------------------------------------------------------------------------------------|
C|---------------------------------------------------------------------10-10-14-14-14-14-14-14--|
G|-10-10-10-10-8-8-8-8-8-8-8-8-8-8-8-8-10-10-10-10-8-8-8-8-8-8-8-8-8-8--------------------------|
D|----------------------------------------------------------------------------------------------|

-------------------|
--------------(x2)-|
-------------------|
-14-14-14-14-14-14-|
-------------------|
-------------------|


Chorus #3:

D|-------------------------------------------------------------(x4)-|
A|------------------------------------------------------------------|
F|----------------------------------7-7-7-7-7-7-7-7-7-7-7-7-7-7-7-7-|
C|-3-3-3-3-3-3-3-3-3-3-3-3-3-3-3-3--7-7-7-7-7-7-7-7-7-7-7-7-7-7-7-7-|
G|-3-3-3-3-3-3-3-3-3-3-3-3-3-3-3-3--5-5-5-5-5-5-5-5-5-5-5-5-5-5-5-5-|
D|-1-1-1-1-1-1-1-1-1-1-1-1-1-1-1-1----------------------------------|

D|-------------------------------------------------------------------|
A|-------------------------------------------------------------------|
F|----------------------------------7-7-7-7-7-7-7-7-7-7-7-7-7-7-7-7b-|
C|-3-3-3-3-3-3-3-3-3-3-3-3-3-3-3-3--7-7-7-7-7-7-7-7-7-7-7-7-7-7-7----|
G|-3-3-3-3-3-3-3-3-3-3-3-3-3-3-3-3--5-5-5-5-5-5-5-5-5-5-5-5-5-5-5----|
D|-1-1-1-1-1-1-1-1-1-1-1-1-1-1-1-1-----------------------------------|


Outro:

D|----------------------------------------------------|
A|-----------------------------------------------(x2)-|
F|----------------------------------------------------|
C|-2-2-2-2-2-2--2-2-2-2-2-2--2-2-2-2-2-2--2-2-2-2-2-2-|
G|-2-2-2-2-2-2--2-2-2-2-2-2--2-2-2-2-2-2--2-2-2-2-2-2-|
D|-0-0-0-0-0-0--0-0-0-0-0-0--0-0-0-0-0-0--0-0-0-0-0-0-|

D|-------------------------------------------------------------|
A|-----0-0-0-0---------0-0-0-0---------0-0-0-0---------0-0-0-0-|
F|-----0-0-0-0---------0-0-0-0---------0-0-0-0---------0-0-0-0-|
C|-2-2-------------2-2-------------2-2-------------2-2---------|
G|-2-2-------------2-2-------------2-2-------------2-2---------|
D|-0-0-------------0-0-------------0-0-------------0-0---------|

D|----------------------------------------------------|--------|
A|-----0-0-0-0---------0-0-0-0------------------------|--------|
F|-----0-0-0-0---------0-0-0-0------------------------|--------|
C|-2-2-------------2-2-------------2-2-2-2-5-5---10~--|---/----|
G|-2-2-------------2-2-------------2-2-2-2-5-5---10~--|---/----|
D|-0-0-------------0-0-------------0-0-0-0-3-3-0--8~--|---/----|
Show more