• Song:

    Saturdays

  • Artist:

    Chevelle

  • Album:

    Vena Sera

Artist: Chevelle
Album: Vena Sera  
Song: Saturdays 
Tuning: Drop B: B F# B E

Intro



E |----------|
B |----------|
F#|----------|
B |--2-------|

Verse #1

E |-----------------------------------------------------------------------|
B |-----------------------------------------------------------------------|
F#|--7-7-7-7-7-7-7-7-7-7-7-7-7-7-7-7----------------------------------x7--|
B |----------------------------------7-7-7-7-7-7-7-7-7-7-7-7-7-7-7-7------|

Chorus

E |---------------------------------------------------------------------------|
B |---------------------------------------------------------------------------|
F#|--7-7-7-5-5-5----------------------------------------------------------x3--|
B |--------------0-5-5-5-5-5-5-5-5-5-5-0-2-2-2-2-2-2-2-2-2-2-2-2-2-2-2-2------|

E |------------------------------------------------------------------|
B |------------------------------------------------------------------|
F#|--7-7-7-5-5-5-----------------------------------------------------|
B |--------------0-5-5-5-5-5-5-5-5-5-5-0-2-2-2-2-2--2-2-2-2--2-2-2---|

Verse #2

E |-----------------------------------------------------------------------|
B |-----------------------------------------------------------------------|
F#|--7-7-7-7-7-7-7-7-7-7-7-7-7-7-7-7----------------------------------x7--|
B |----------------------------------7-7-7-7-7-7-7-7-7-7-7-7-7-7-7-7------|

Chorus

E |---------------------------------------------------------------------------|
B |---------------------------------------------------------------------------|
F#|--7-7-7-5-5-5----------------------------------------------------------x3--|
B |--------------0-5-5-5-5-5-5-5-5-5-5-0-2-2-2-2-2-2-2-2-2-2-2-2-2-2-2-2------|

 

E |--------------------------------------------------------------|
B |--------------------------------------------------------------|
F#|--7-7-7-5-5-5-------------------------------------------------|
B |--------------0-5-5-5-5-5-5-5-5-5-5-0-2-2-2-2-2--2-2-2-2--7\--|

Bridge

E |------------------------------------------------------------------------------------------|
B |------------------------------------------------------------------------------------------|
F#|------------------------------------------------------------------------------------------|
B |--9--9--9--9--9--9--9--9-0-0--0--0--0--0--0--0--0--0-7-7-7-7-7-7-7-7-7-7-7-7-7-7-7-7--x2--|


E |--------------------------------------------------------------------------------------------|
B |--------------------------------------------------------------------------------------------|
F#|--------------------------------------------------------------------------------------------|
B |--9--9--9--9--9--9--9--9-0-0--0--0--0--0--0--0--0--0-7-7-7-7-7-7-7-7-0-2-2-2-2-2-2-2-2--x2--|


Chorus

E |---------------------------------------------------------------------------|----|
B |---------------------------------------------------------------------------|----|
F#|--7-7-7-5-5-5----------------------------------------------------------x2--|----|
B |--------------0-5-5-5-5-5-5-5-5-5-5-0-2-2-2-2-2-2-2-2-2-2-2-2-2-2-2-2------|-7\-|

Outro

E |---------------------------------------------------------------------------|
B |---------------------------------------------------------------------------|
F#|--7-7-7-5-5-5-----------------------7-7-7-5-5-5------------------------x2--|
B |--------------0-5-5-5-5-5-5-5-5-5-5-------------0-5-5-5-5-5-5-5-5-5-5------|

E |------------------------|
B |------------------------|
F#|------------------------|
B |--2-2-2-2-2--2-2-2-2----|

And that's it.
Show more