Artist: Chevelle
Song: Sleep Walking Elite
Album: Vena Sera, 2007 Epic
Tuning:  Drop-B (B F# B G# C#)
Tabbed by: Shaun Jackson (shaun.jackson1@hotmail.com)

This is a bonus track on Chevelle's new album, which is a 
Best Buy exclusive. The chords aren't too difficult to 
hold, but it's the timing of your strumming hand that takes 
a little getting used to. Especially the [RIFF 1] and [VERSE]
riffs. For those riffs, to stay on time it is most efficient 
to double-stroke; hitting the notes on the downstrokes while
muting the upstrokes. The guitar and drums work on slightly
different timings through the [VERSE] riff, so it's critical
you understand the timing of the strokes there. And on the
bridge, I listed mainly what notes to hold, but do be aware
that on the 3rd and 4th repeats, Pete tremolo picks very
quickly, and also bends the notes slightly. That is all. 

________________________________________________________________________
[RIFF 1]:
C#|--------------------------------------------------------------------|
G#|--------------------------------------------------------------------|
E |--------------------------------------------------------------------|
B |4444-xx-4444-xx-4444-xx-4444-xx-4444-xx-4444-xx-4444-xx-4444--------|
F#|4444-xx-4444-xx-4444-xx-4444-xx-4444-xx-4444-xx-4444-xx-4444--------|
B |4444-xx-4444-xx-4444-xx-4444-xx-4444-xx-4444-xx-4444-xx-4444--------|

[VERSE]:
C#|--------------------------------------------------------------------|
G#|--------------------------------------------------------------------|
E |--------------------------------------------------------------------|
B |-4-4-4-4-4-4-2-2-2-2-2-2-7-7-7-7-7-7-9-9-9-9-9-9--------------------|
F#|-4-4-4-4-4-4-2-2-2-2-2-2-7-7-7-7-7-7-9-9-9-9-9-9--------------------|
B |-4-4-4-4-4-4-2-2-2-2-2-2-7-7-7-7-7-7-9-9-9-9-9-9--------------------|

C#|--------------------------------------------------------------------|
G#|--------------------------------------------------------------------|
E |--------------------------------------------------------------------|
B |-4-4-4-4-4-4-2-2-2-2-2-2-7-7-7-7-7-7-5-5-5-5-5-5--------------------|
F#|-4-4-4-4-4-4-2-2-2-2-2-2-7-7-7-7-7-7-5-5-5-5-5-5--------------------|
B |-4-4-4-4-4-4-2-2-2-2-2-2-7-7-7-7-7-7-5-5-5-5-5-5--------------------|

[RIFF 1]

[VERSE] 

[RIFF 1]

[CHORUS]:
C#|--------------------------------------------------------------------|
G#|--------------------------------------------------------------------|
E |-777777777777-------------------------------------------------------|
B |-777777777777-999999999999-444444444444-777777777777----------------|
F#|-555555555555-999999999999-444444444444-777777777777----------------|
B |--------------999999999999-444444444444-777777777777----------------|

C#|--------------------------------------------------------------------|
G#|--------------------------------------------------------------------|
E |-777777777777-------------------------------------------------------|
B |-777777777777-999999999999-444444444444-777777999999----------------|
F#|-555555555555-999999999999-444444444444-777777999999----------------|
B |--------------999999999999-444444444444-777777999999----------------|

[VERSE]

[VERSE 2]:
C#|--------------------------------------------------------------------|
G#|--------------------------------------------------------------------|
E |--------------------------------------------------------------------|
B |--------------------------------------------------------------------|
F#|--------------------------------------------------------------------|
B |-444444444444-222222222222-777777777777-999999999999----------------|

C#|--------------------------------------------------------------------|
G#|--------------------------------------------------------------------|
E |--------------------------------------------------------------------|
B |-444444444444-222222222222-777777777777-555555555555----------------|
F#|-xxxxxxxxxxxx-xxxxxxxxxxxx-xxxxxxxxxxxx-xxxxxxxxxxxx----------------|
B |-444444444444-222222222222-777777777777-555555555555----------------|

[CHORUS 2]:
C#|--------------------------------------------------------------------|
G#|--------------------------------------------------------------------|
E |-777777777777-------------------------------------------------------|
B |-777777777777-999999999999-444444444444-777777777777----------------|
F#|-555555555555-999999999999-444444444444-777777777777----------------|
B |--------------999999999999-444444444444-777777777777----------------|

C#|--------------------------------------------------------------------|
G#|--------------------------------------------------------------------|
E |-777777777777-------------------------------------------------------|
B |-777777777777-999999999999-4--4--4--4--7--7--9--9-------------------|
F#|-555555555555-999999999999-4--4--4--4--7--7--9--9-------------------|
B |--------------999999999999-4--4--4--4--7--7--9--9-------------------|


[BRIDGE]:    (x4)
C#|--------------------------------------------------------------------|
G#|--------------------------------------------------------------------|
E |--------------------------------------------------------------------|
B |-4========p\--------------------------------------------------------|
F#|------------2====2-0-2-0-5==4==-------------------------------------|
B |--------------------------------------------------------------------|

[RIFF 1]

C#|--------------------------------------------------------------------|
G#|--------------------------------------------------------------------|
E |--------------------------------------------------------------------|
B |-4==2==0==7==-------------------------------------------------------|
F#|-4==2==0==7==-------------------------------------------------------|
B |-4==2==0==7==-------------------------------------------------------|

[CHORUS 1]

[CHORUS 2]


____________________________________________________________________________
{SYMBOLS}

x  - mute strum
=  - hold note
p  - pull off
\  - slide down
Show more