Intro (start when he starts singing)
|-----------------------------------------------------|
|-----------------------------------------------------|
|-3-3-5-3-------------------3-3-5-3-------------------|
|----------3-0~-3h-0p-3h-0p-------3/4~-4h-4p-4h-4p----|  x3

|-------------------------------------|
|-------------------------------------|
|3-3-5-3------------------3-3-5-3-----|
|-------3-0~-3h-0p-3h-0p---------3/4--| 


chorus
|----------------------------|
|----------------------------|
|----------------------------|
|0-0-0-0-0-0-0-3-3-3-3-3-3-0-|


|-----------------------------------------------------|
|-----------------------------------------------------|
|5-5-5-5-5-5-5--5--5-5--5--5-5--5-5-5----------------|
|-------------------------------------0-0-0-0-0-0-0---|


|-----------------------------------------------------|
|-----------------------------------------------------|
|--------------5-5-5-5-5-5-5-5-5-0-2-2-2-2-2-2-2-2-2-2|
|3-3-3-3-3-3-0----------------------------------------|


bridge
|-----------------------------------------------------|
|-----------------------------------------------------|
|-3-3-5-3-----------------3-3-5-3---------------------|
|--------3-0~-3h-0p-3h-0p--------3/4~-4h-4p-4h-4p-----|x3  


verse
|-----------------------------------------------------|
|-----------------------------------------------------|
|-3-3-5-3-------------------3-3-5-3-------------------|
|----------3-0~-3h-0p-3h-0p--------3/4~-4h-4p-4h-4p---|  x7


|-------------------------------------|
|-------------------------------------|
|3-3-5-3------------------3-3-5-3-----|
|-------3-0~-3h-0p-3h-0p---------3/4--| 



chorus
|----------------------------|
|----------------------------|
|----------------------------|
|0-0-0-0-0-0-0-3-3-3-3-3-3-0-|


|-----------------------------------------------------|
|-----------------------------------------------------|
|5-5-5-5-5-5-5--5--5-5--5--5-5--5-5-5----------------|
|-------------------------------------0-0-0-0-0-0-0---|


|-----------------------------------------------------|
|-----------------------------------------------------|
|--------------5-5-5-5-5-5-5-5-5-0-2-2-2-2-2-2-2-2-2-2|
|3-3-3-3-3-3-0----------------------------------------|


bridge
|-----------------------------------------------------|
|-----------------------------------------------------|
|-3-3-5-3-----------------3-3-5-3---------------------|
|--------3-0~-3h-0p-3h-0p--------3/4~-4h-4p-4h-4p-----|x3

  
|-------------------------------------|
|-------------------------------------|
|3-3-5-3------------------3-3-5-3-----|
|-------3-0~-3h-0p-3h-0p---------3/4--| 


Chorus x2
|----------------------------|
|----------------------------|
|----------------------------|
|0-0-0-0-0-0-0-3-3-3-3-3-3-0-|


|-----------------------------------------------------|
|-----------------------------------------------------|
|5-5-5-5-5-5-5--5--5-5--5--5-5--5-5-5\----------------|
|-------------------------------------0-0-0-0-0-0-0---|


|-----------------------------------------------------|
|-----------------------------------------------------|
|--------------5-5-5-5-5-5-5-5-5-0-2-2-2-2-2-2-2-2-2-2|
|3-3-3-3-3-3-0----------------------------------------|


Bridge to end
|-----------------------------------------------------|
|-----------------------------------------------------|
|-3-3-5-3-----------------3-3-5-3---------------------|
|--------3-0~-3h-0p-3h-0p--------3/4~-4h-4p-4h-4p-----|x4


|--------------------------------------------------------|
|--------------------------------------------------------|
|--------------------------------------------------------|
|-4h-4p-------4h-4p-------3h-3hp-------3h-3p-----4~~~~~~~|
Show more