-----------------------------------------------------------------------------
			     The Red - Chevelle
-----------------------------------------------------------------------------

Tabbed By : frictionator
e-mail: n/a

Saw the bassist play this live from about 30 feet away.


"They say freak..."                                         Play 3x
---------------------------------------------------------------------------|
---------------------------------------------------------------------------|
-----------5-5-7-5-0-----------5-5-7-5-0-----------------------------------|
---------------------3-3-0-3-0-----------8--8-8-8-8------------------------|

                                                            Play 1x
---------------------------------------------------------------------------|
---------------------------------------------------------------------------|
-5-5-7-5-0-----------5-5-7-5-0---------------------------------------------|
-----------3-3-0-3-0-----------8-------------------------------------------|


"So lay down..."                                            Play 1x  
---------------------------------------------------------------------------|
---------------------------------------------------------------------------|
--------------------------------3-3-3--3-3-3--3-3--3-3--3--3---------------|
----------0---0-0--0-3--3-3-3-3--------------------------------------------|


"When his sight..."                                          Play 1x
---------------------------------------------------------------------------|
---------------------------------------------------------------------------|
--------------------------------3-3-3--3-3-3-------------------------------|
----------0---0-0--0-3--3-3-3-3--------------8-8--8--8---8-8--8--8---------|


 "Seeing red again..."                                      Play 9x
---------------------------------------------------------------------------|
---------------------------------------------------------------------------|
5-5-7-5-0-----------5-5-7-5-0----------------------------------------------|
----------3-3-0-3-0-----------8--8-8-8-8-----------------------------------|

                                                            Play 1x
---------------------------------------------------------------------------|
---------------------------------------------------------------------------|
-5-5-7-5-0-----------5-5-7-5-0---------------------------------------------|
-----------3-3-0-3-0-----------8-------------------------------------------|


So lay down..."                                             Play 1x  
---------------------------------------------------------------------------|
---------------------------------------------------------------------------|
-------------------------------3-3-3--3-3-3--3-3--3-3--3--3---------------|
---------0---0-0--0-3--3-3-3-3---------------------------------------------|


"When his sight..."                                          Play 1x
---------------------------------------------------------------------------|
---------------------------------------------------------------------------|
--------------------------------3-3-3--3-3-3-------------------------------|
----------0---0-0--0-3--3-3-3-3--------------8-8--8--8---8-8--8--8---------|


So lay down..."                                              Play 1x  
---------------------------------------------------------------------------|
---------------------------------------------------------------------------|
--------------------------------3-3-3--3-3-3--3-3--3-3--3--3---------------|
--------- 0---0-0--0-3--3-3-3-3--------------------------------------------|


"When his sight..."                                          Play 1x
---------------------------------------------------------------------------|
---------------------------------------------------------------------------|
--------------------------------3-3-3--3-3-3-------------------------------|
----------0---0-0--0-3--3-3-3-3--------------8-8--8--8---8-8--8--8---------|


(Guitar solo)                                                Play 3x
---------------------------------------------------------------------------|
---------------------------------------------------------------------------|
-5-5-7-5-0-----------5-5-7-5-0---------------------------------------------|
-----------3-3-0-3-0-----------8--8-8-8-8----------------------------------|

                                                            Play 1x
---------------------------------------------------------------------------|
---------------------------------------------------------------------------|
-5-5-7-5-0-----------5-5-7-5-0---------------------------------------------|
-----------3-3-0-3-0-----------8-------------------------------------------|


"So lay down..."                                            Play 1x  
---------------------------------------------------------------------------|
---------------------------------------------------------------------------|
--------------------------------3-3-3--3-3-3--3-3--3-3--3--3---------------|
--------- 0---0-0--0-3--3-3-3-3--------------------------------------------|


"When his sight..."                                          Play 1x
---------------------------------------------------------------------------|
---------------------------------------------------------------------------|
--------------------------------3-3-3--3-3-3-------------------------------|
----------0---0-0--0-3--3-3-3-3--------------8-8--8--8---8-8--8--8---------|-


"So lay down..."                                            Play 1x  
---------------------------------------------------------------------------|
---------------------------------------------------------------------------|
--------------------------------3-3-3--3-3-3--3-3--3-3--3--3---------------|
--------- 0---0-0--0-3--3-3-3-3--------------------------------------------|


"When his sight..."                                          Play 1x
---------------------------------------------------------------------------|
---------------------------------------------------------------------------|
--------------------------------3-3-3--3-3-3-------------------------------|
----------0---0-0--0-3--3-3-3-3--------------8-8--8--8---8-8--8--8---------|


"SEEING RED AGAIN!..."                                      Play 3x
---------------------------------------------------------------------------|
---------------------------------------------------------------------------|
-5-5-7-5-0-----------5-5-7-5-0---------------------------------------------|
-----------3-3-0-3-0-----------8--8-8-8-8----------------------------------|



                                                            Play 1x
---------------------------------------------------------------------------|
---------------------------------------------------------------------------|
-5-5-7-5-0-----------5-5-7-5-0---------------------------------------------|
-----------3-3-0-3-0-----------8-8--8-8-8--7-7--7-7--7---------------------|


"They say freak..."
---------------------------------------------------------------------------|
---------------------------------------------------------------------------|
---------------------------------------------------------------------------|
-0-------------------------------------------------------------------------|




| /  slide up
| \  slide down
| h  hammer-on
| p  pull-off
| ~  vibrato
| +  harmonic
| x  Mute note
===============================================================================
Show more