Band: Chevelle
Song: The Red
Album: Wonder What's Next
Tunning: C# F# B E
Tabbed By: slipknot345@gmail.com


Intro:

(guitar plays until 00:11)


Verse #1: (start at 00:11)

E |--------------------------------------------------------|
B |---------------------------------------------------(x3)-|
F#|-5--5--7--5--0-----------------5--5--7--5--0------------|
C#|----------------3--3--0--3--0-----------------6-6-6-6-6-|

E |------------------------------------------------|
B |------------------------------------------------|
F#|-5--5--7--5--0-----------------5--5--7--5--0----|
C#|----------------3--3--0--3--0-----------------6-|


Chorus:

E |----------------------------------------------------------------|
B |----------------------------------------------------------------|
F#|---------------------------5--5-5-5-5--5--5-5-5-5--5--5-5-5-5-5-|
C#|-0--0--0-0-0-3--3--3-3-3-0--------------------------------------|

E |-------------------------------------------------------------------|
B |-------------------------------------------------------------------|
F#|---------------------------5--5-5-5-5--5--5-5-5-5-0-2-2-2-2--2-2-2-|
C#|-0--0--0-0-0-3--3--3-3-3-0-----------------------------------------|

E |--------------------------------------------------------|
B |---------------------------------------------------(x2)-|
F#|-5--5--7--5--0-----------------5--5--7--5--0------------|
C#|----------------3--3--0--3--0-----------------6-6-6-6-6-|


Verses #2 & #3:

E |--------------------------------------------------------|
B |---------------------------------------------------(x7)-|
F#|-5--5--7--5--0-----------------5--5--7--5--0------------|
C#|----------------3--3--0--3--0-----------------6-6-6-6-6-|

E |------------------------------------------------|
B |------------------------------------------------|
F#|-5--5--7--5--0-----------------5--5--7--5--0----|
C#|----------------3--3--0--3--0-----------------6-|


Chorus:

E |----------------------------------------------------------------|
B |----------------------------------------------------------------|
F#|---------------------------5--5-5-5-5--5--5-5-5-5--5--5-5-5-5-5-|
C#|-0--0--0-0-0-3--3--3-3-3-0--------------------------------------|

E |-------------------------------------------------------------------|
B |-------------------------------------------------------------------|
F#|---------------------------5--5-5-5-5--5--5-5-5-5-0-2-2-2-2--2-2-2-|
C#|-0--0--0-0-0-3--3--3-3-3-0-----------------------------------------|


Bridge:

E |--------------------------------------------------------|
B |---------------------------------------------------(x3)-|
F#|-5--5--7--5--0-----------------5--5--7--5--0------------|
C#|----------------3--3--0--3--0-----------------6-6-6-6-6-|

E |------------------------------------------------|
B |------------------------------------------------|
F#|-5--5--7--5--0-----------------5--5--7--5--0----|
C#|----------------3--3--0--3--0-----------------6-|


Chorus: (x2)

E |----------------------------------------------------------------|
B |----------------------------------------------------------------|
F#|---------------------------5--5-5-5-5--5--5-5-5-5--5--5-5-5-5-5-|
C#|-0--0--0-0-0-3--3--3-3-3-0--------------------------------------|

E |-------------------------------------------------------------------|
B |-------------------------------------------------------------------|
F#|---------------------------5--5-5-5-5--5--5-5-5-5-0-2-2-2-2--2-2-2-|
C#|-0--0--0-0-0-3--3--3-3-3-0-----------------------------------------|


Outro:

E |--------------------------------------------------------|
B |---------------------------------------------------(x3)-|
F#|-5--5--7--5--0-----------------5--5--7--5--0------------|
C#|----------------3--3--0--3--0-----------------6-6-6-6-6-|

E |--------------------------------------------------------------|
B |--------------------------------------------------------------|
F#|-5--5--7--5--0-----------------5--5--7--5--0------------------|
C#|----------------3--3--0--3--0-----------------6-6-6-6-6-6-6-6-|

E |---------------------------------------------------|
B |---------------------------------------------------|
F#|---------------------------------------------------|
C#|---------6--6---------5--5---------5--5---------0~-|

E |--------------------------------------------------------|-----|
B |---------------------------------------------------(x3)-|-----|
F#|-5--5--7--5--0-----------------5--5--7--5--0------------|-5~--|
C#|----------------3--3--0--3--0-----------------6-6-6-6-6-|-----|
Show more