• Song:

    To Return

  • Artist:

    Chevelle

  • Album:

    THIS KIND OF THINKING

----------------------------------------------------------------------------
			      To Return - Chevelle 
----------------------------------------------------------------------------

Tabbed By : Jeff Perry
 

Tuning:A# F A# D#

  INTRO:
D#|----------------------------------------------------------------------|
A#|----------------------------------------------------------------------|
F |--------------------------------------------7/9-9-9/12-12-11-12-11----|
A#|--4-4-4-4-4-2-4-0-0-0-0-0-2-0-4-4-4-4-4-2-4---------------------------|

  VERSE: 2x
|------------------------------------------------------------------------|
|------------------------------------------------------------------------|
|--2-2-2-2-2-1-2-5-5-5-5-5-4-5-2-2-2-2-2-1-2-5-5-5-5-5-4-5---------------|
|------------------------------------------------------------------------|

  Soft Chorus: Bass Does Not Play Here!

  VERSE: 2x
  Starts At 1:03
|------------------------------------------------------------------------|
|------------------------------------------------------------------------|
|--2-2-2-2-2-1-2-5-5-5-5-5-4-5-2-2-2-2-2-1-2-5-5-5-5-5-4-5---------------|
|------------------------------------------------------------------------|

  CHORUS: 2x
|------------------------------------------------------------------------|
|------------------------------------------------------------------------|
|--------------------------------------------7/9-9-9/12-12-11-12-11------|
|--4-4-4-4-4-2-4-0-0-0-0-0-2-0-4-4-4-4-4-2-4-----------------------------|


  BRIDGE:
|------------------------------------------------------------------------|
|------------------------------------------------------------------------|
|------------------------------------------------------------------------|
|--9-9-9-9-11-12-11-9----7-7-7-7-9-11-9-5----5-5-5-5-7-9-7-5----4-4-4-4--|

|------------------------------------------------------------------------|
|------------------------------------------------------------------------|
|------------------------------------------------------------------------|
|-11-12-11-9----9-9-9-9-11-12-11-9----7-7-7-7-9-11-9-7----5-5-5-5-7-9-7-5|

  BRIGDE PART 2: 2x                                        Last Time Play
|---------------------------------------------------------|--------------|
|.-------------------------------------------------------.|--------------|
|.-------------------------------------------------------.|--------------|
|-4-4-5-5-4-4-10-10-9-7-9-0----4-4-5-5-4-4-10-10-9-7-9-0--|----4---------|


  CHORUS: 2x
|------------------------------------------------------------------------|
|------------------------------------------------------------------------|
|--------------------------------------------7/9-9-9/-12-12-11-12-11-----|
|--4-4-4-4-4-2-4-0-0-0-0-0-2-0-4-4-4-4-4-2-4-----------------------------|

  OUTRO: No Bass


| /  slide up
| \  slide down
| h  hammer-on
| p  pull-off
| ~  vibrato
| +  harmonic
| x  Mute note
============================================================================
Show more