• Song:

    Steel Rain

  • Artist:

    Chris Cornell

  • Album:

    Euphoria Morning

Chris Cornell - Steel Rain

Standard Tuning

Guitar 1 (acoustic)
Intro/part of Verse:
    F            Am       Am7   B          Bdim
e----1--1-1--1-1--0--0-0-0--3----2-2--2--2--2-2-2-2----------------|
B----1--1-1--1-1--1--1-1-1--1----4-4--4--4--4-4-4-4----------------|
G----2--2-2--2-2--2--2-2-2--2----4-4--4--4--2-2-2-2----------------|
D----3--3-3--3-3--2--2-2-2--2----4-4--4--4--4-4-4-4----------------|
A---------------------0---------0-----------2-2-2-2--2-2-2-2-------|
E------------------------------------------------------------------|

Guitar 2 (electric clean with a little chorus)
e--1---1---1--0---0----0--3--2(h3)----------------|
B-----------------------------------4--4-4b5b4----|
G-------------------------------------------------|
D-------------------------------------------------|
A-------------------------------------------------|
E-------------------------------------------------|

I can't seem to figure out the chorus or the lead in to it, but here is what sounds
to me like the part right  before the second verse, here are the chords.

e--1-0-0-2-2-2-2--|
B--1-1-1-4-4-4-4--|
G--2-2-2-4-4-4-2--|
D--3-3-2-4-3-2-4--|
A--------------2--|
E-----------------|
Show more