• Song:

    Its Not Over

  • Artist:

    Chris Daughtry

G|------|----------------|----------------|
D|-8\---|----------------|----------------|
A|------|----------------|----------------|
E|------|6---4---2---4---|6---4---2---4---|

Pre-Chorus

G|----------------------|-----------------------|
D|----------------------|-----------------------|
A|------4-4-4-4-4-4-4---|-------6-6-6-6-6-6-6---|
E|6-6-6-----------------|4-4-4------------------|

Chorus

G|----------------|----------------|----------------|-------|
D|----------------|----------------|----------------|-------|
A|----------------|------------4-4-|----------------|-------|
E|2-2-4-4-6-6-4-4-|2-2-4-4-6-6-----|2-2-4-4-6-6-4-4-|2-2-1--|

Verse 

G|----------------|----------------|----------------|----------------|
D|----------------|----------------|----------------|----------------|
A|----------------|----------------|----------------|----------------|
E|6---4---2---4---|6---4---2---4---|6---4---2---4---|6---4---2---4---|

Pre-Chorus

G|--------------------|--------------------|
D|--------------------|--------------------|
A|------4-4-4-4-4-4-4-|------6-6-6-6-6-6-6-|
E|6-6-6---------------|4-4-4---------------|

G|--------------------|--------------------|
D|--------------------|--------------------|
A|------4-4-4-4-4-4-4-|------6-6-6-6-6-6-6-|
D|6-6-6---------------|4-4-4---------------|

Chorus

G|----------------|----------------|----------------|------------|
D|----------------|----------------|----------------|------------|
A|----------------|------------4-4-|----------------|----8-8-8-8-|
E|2-2-4-4-6-6-4-4-|2-2-4-4-6-6-----|2-2-4-4-6-6-4-4-|2-2---------|

Solo

G|----------------|----------------|----------------|------------|
D|----------------|----------------|----------------|------------|
A|----------------|------------R-R-|----------------|----8-8-8-4-|
E|2-2-4-4-6-6-4-4-|2-2-4-4-6-6-----|2-2-4-4-6-6-4-4-|2-2---------|

Final Chorus

G|----------------|---------------------|----------------|--------|
D|----------------|---------------------|----------------|--------|
A|----------------|----------/8\---4----|----------------|--------|
E|2-2-4-4-6-6-4-4-|2-2-4-4-6------------|2-2-4-4-6-6-4-4-|2-2—1-1-|

G|----------------|-----------------|----------------|-------|
D|----------------|-----------------|----------------|-------|
A|----------------|-----------464-3-|----------------|-------|
E|2-2-4-4-6-6-4-4-|2-2-4-4-6-6------|2-2-4-4-6-6-4-4-|2-2--1-|

G|-----|
D|-----|
A|-----|
E|6~---|

So, just to put this out there, I barely did anything, I give most 
of the credit to IHATECHILDREN, all I did was change 
it to standard tuning. Thanks a lot, tell me if I screwed up.
Show more