• Song:

    Take Me Away

  • Artist:

    Christina Vidal

sponsored links
G |---------|---------|---------|---------|---------------|---------------|
D |---------|---------|---------|---------|---------------|---------------|
A |---------|---------|---------|---------|-----0-1-2-2---|--3-2-0-2--1-0-|
E |---------|---------|---------|---------|-2-2-----------|---------------|

|---------------|---------------|---------------|---------------|
|---------------|---------------|---------------|---------------|
|-----0-1-2-2---|--3-2-0-2--1-0-|-----0-1-2-2---|--3-2-0-2--1-0-|
|-2-2-----------|---------------|-2-2-----------|---------------|

|---------------|---------------|---------------|---------------|
|---------------|---------------|---------------|---------------|
|-----0-1-2-2---|--3-2-0-2--1-0-|-----0-1-2-2---|--3-2-0-2--1-0-|
|-2-2-----------|---------------|-2-2-----------|---------------|

|---------------|---------------|-----------------------|
|---------------|---------------|-----------------------|
|-----0-1-2-2---|--3-2-0-2--1-0-|-----------------------|
|-2-2-----------|---------------|-2-2-2x-2x-2x-2x-2x-2x-|

|-----------------------|---------------------|-----------------|
|-----------------------|---------------------|-----------------|
|-----------------------|---------------------|-----------------|
|-2-2-2x-2x-2x-2x-2x-2x-|-2-2-2x-2x-2-2-2x-2x-|-2-2-2-2-2-2-2-2-|

|-----------------|-----------------|-----------------|-----------------|
|-----------------|-----------------|-----------------|-----------------|
|-5-5-5-5-5-5-5-5-|-----------------|-2-2-2-2-2-2-2-2-|-----------------|
|-----------------|-2-2-2-2-2-2-2-2-|-----------------|-5-5-5-5-5-5-5-5-|

|-----------------|-----------------|-----------------|-----------------|
|-----------------|-----------------|-----------------|-----------------|
|-5-5-5-5-5-5-5-5-|-----------------|-2-2-2-2-5-5-5-5-|-7-7-7-7-8-8-8-8-|
|-----------------|-2-2-2-2-2-2-2-2-|-----------------|-----------------|

|-----------------|-----------------|---------------|---------------|
|-----------------|-----------------|---------------|---------------|
|-4-4-4-4-4-4-4-4-|-4-4-4-4-4-4-4-4-|-----0-1-2-2---|--3-2-0-2--1-0-|
|-----------------|-----------------|-2-2-----------|---------------|

|---------------|---------------|---------------|---------------|-----------|
|---------------|---------------|---------------|---------------|-----------|
|-----0-1-2-2---|--3-2-0-2--1-0-|-----0-1-2-2---|--3-2-0-2--1-0-|-----------|
|-2-2-----------|---------------|-2-2-----------|---------------|-2-2-------|

|---------|---------------|---------------|---------------|---------------|
|---------|---------------|---------------|---------------|---------------|
|---------|-----0-1-2-2---|--3-2-0-2--1-0-|-----0-1-2-2---|--3-2-0-2--1-0-|
|---------|-2-2-----------|---------------|-2-2-----------|---------------|

|---------------|---------------|-----------|-----------|-------------|
|---------------|---------------|-----------|-----------|-------------|
|-----0-1-2-2---|--3-2-0-2--1-0-|-----------|-----------|-------------|
|-2-2-----------|---------------|-2-2-------|-2-2-------|-2-2---2-2---|

|-----------------|-----------------|-----------------|-----------------|
|-----------------|-----------------|-----------------|-----------------|
|-----------------|-5-5-5-5-5-5-5-5-|-----------------|-2-2-2-2-2-2-2-2-|
|-2-2-2-2-2-2-2-2-|-----------------|-2-2-2-2-2-2-2-2-|-----------------|

|-----------------|-----------------|-----------------|-----------------|
|-----------------|-----------------|-----------------|-----------------|
|-----------------|-5-5-5-5-5-5-5-5-|-----------------|-2-2-2-2-5-5-5-5-|
|-5-5-5-5-5-5-5-5-|-----------------|-2-2-2-2-2-2-2-2-|-----------------|

|-----------------|-----------------|-----------------|-----------------|
|-----------------|-----------------|-----------------|-----------------|
|-7-7-7-7-8-8-8-8-|-4-4-4-4-4-4-4-4-|-4-4-4-4-4-4-4-4-|-5-5-5-5-5-5-5-5-|
|-----------------|-----------------|-----------------|-----------------|

|-----------------|-----------------|-----------------|-----------------|
|-----------------|-----------------|-----------------|-----------------|
|-----------------|-2-2-2-2-2-2-2-2-|-----------------|-5-5-5-5-5-5-5-5-|
|-2-2-2-2-2-2-2-2-|-----------------|-5-5-5-5-5-5-5-5-|-----------------|

|-----------------|-----------------|-----------------|-----------------|
|-----------------|-----------------|-----------------|-----------------|
|-----------------|-2-2-2-2-5-5-5-5-|-7-7-7-7-8-8-8-8-|-4-4-4-4-4-4-4-4-|
|-2-2-2-2-2-2-2-2-|-----------------|-----------------|-----------------|

|-----------------|-----------------|-----------------|-----------------|
|-----------------|-----------------|-----------------|-----------------|
|-4-4-4-4-4-4-4-4-|-5-5-5-5-5-5-5-5-|-----------------|-2-2-2-2-2-2-2-2-|
|-----------------|-----------------|-2-2-2-2-2-2-2-2-|-----------------|

|-----------------|-----------------|-----------------|-----------------|
|-----------------|-----------------|-----------------|-----------------|
|-----------------|-5-5-5-5-5-5-5-5-|-----------------|-2-2-2-2-5-5-5-5-|
|-5-5-5-5-5-5-5-5-|-----------------|-2-2-2-2-2-2-2-2-|-----------------|

|-----------------|-----------------|-----------------|---------|---------|
|-----------------|-----------------|-----------------|---------|---------|
|-7-7-7-7-8-8-8-8-|-4-4-4-4-4-4-4-4-|-4-4-4-4-4-4-4-4-|---------|---------|
|-----------------|-----------------|-----------------|---------|---------|

|---------------|---------------|---------------|---------------|
|---------------|---------------|---------------|---------------|
|-----0-1-2-2---|--3-2-0-2--1-0-|-----0-1-2-2---|--3-2-0-2--1-0-|
|-2-2-----------|---------------|-2-2-----------|---------------|

|---------------|
|---------------|
|---------------|
|-2-2-----------|

I have only changed a little bit to the previous tab but it does sound better as the 
is more dominant.
If the bit in the solo is wrong where you play the 4’s just add some more 4’s in.
And I added a bit to the end because it sounds good with the drums.
Hope this helps if not the other tab is good.
Show more
sponsored links
sponsored links