• Song:

    Havana Moon

  • Artist:

    Chuck Berry

  • Album:

    Johnny B. Goode/His Com...

----------------------------------------------------------------------------
			   Havana Moon -  Chuck Berry
----------------------------------------------------------------------------
Tabbed by: rikidoodle
Email:

Tuning: Normal

Intro and main riff.

A good way to play it is to use 3rd finger on 3rd string, 2nd finger on 2nd string for 
first 6 notes then simply slide them down the strings and place your first  finger across 
6th fret to form the chord shape for the final part.

e|---------------------------------------------------------------------------|
B|---------------9-----9----------7---7---7----------------------------------|
G|----------8/10----10---10-------8---8---8----------------------------------|
D|--------------------------------6---6---6----------------------------------|
A|--------------------------------6---6---6----------------------------------|
E|---------------------------------------------------------------------------|


| /  slide up
| \  slide down
| h  hammer-on
| p  pull-off
| ~  vibrato
| +  harmonic
| x  Mute note
===============================================================================
Show more