• Song:

    Johhny B Good

  • Artist:

    Chuck Berry

-------------------------------------------------------------------------------
			   Johhny B. Good    - Chuck Berry
-------------------------------------------------------------------------------

Tabbed By : James Ryan
http://world-according-to-jim.blogspot.com/

Tuning: Standard

This is in the Key of A, it could be easily moved to any Key

Intro / break 
G|----------------------------------|
D|----------------------------------|
A|----------------------------------|
E|---5------5------5----------------|

G|------------4--5--4--------------------------------------|
D|------4--7-----------7--4------------4--5--4-------------|
A|---5---------------------------4--7------------7---4-----|
E|----------------------------5----------------------------|

G|---------------------------------------------------------|
D|-----6--9--6-------4--7--4-----------4--5--4-------------|
A|--7-------------5--------------4--7------------7----4----|
E|----------------------------5----------------------------|

Verses / CHORUS
G|---------------------------------------------------------|
D|------------4--5--4------------------4--5--4-------------|
A|------4--7-----------7--4------4--7------------7---4-----|
E|---5------------------------5----------------------------|

G|------------4--5--4--------------------------------------|
D|------4--7-----------7--4------------4--5--4-------------|
A|---5---------------------------4--7------------7---4-----|
E|----------------------------5----------------------------|

G|---------------------------------------------------------|
D|-----6--9--6-------4--7--4-----------4--5--4-------------|
A|--7-------------5--------------4--7------------7----4----|
E|----------------------------5----------------------------|
Show more