• Song:

    Girls Just Want To Have Fun

  • Artist:

    Cindy Lauper

  • Album:

    Hey Now (Girls Just Wan...

Been working on this all afternoon, my first tab so dont be too harsh on the comments ;)
ENJOY x


Intro/Break x2
G|-------------------------------------------------------------------------------|
D|-------------------------------------------------------------------------------|
A|-------------1-4--6--6-6--6--6-2-4---------------------------------------------|
E|2--2-2--2--2-------------------------------------------------------------------|

Verse 1
G|-------------------------------------------------------------------------------|
D|-------------------------------------------------------------------------------|
A|-------------1-4--6--6-6--6--6-6-4---------------------------------------------|
E|2--2-2--2--2-------------------------------------------------------------------|

G|-------------------------------------------------------------------------------|
D|-------------------------------------------------------------------------------|
A|2--2-2--2--2-2-4--6--6-4--4-2--2-2-4----6--6-4--4------------------------------|
E|-------------------------------------------------------------------------------|

Intro/Break x1

Verse 2
G|-------------------------------------------------------------------------------|
D|-------------------------------------------------------------------------------|
A|-------------1-4--6--6-6--6--6-6-4---------------------------------------------|
E|2--2-2--2--2-------------------------------------------------------------------|

G|-------------------------------------------------------------------------------|
D|----------------------------------6-4------------------------------------------|
A|2--2-2--2--2-2-4--6--6-4--4-2--2--------6--6-4--4------------------------------|
E|-------------------------------------------------------------------------------|

Chorus
G|-------------------------------------------------------------------------------|
D|4-------4-------4-------4------------------------------------------------------|
A|---4-6-----4-6-----4-6-----4----6-------6-------6-------6----------------------|
E|-----------------------------------6-4-----6-4-----6-4-----6-------------------|

Outro
G|-------------------------------------------------------------------------------|
D|----------------------------------6-4------------------------------------------|
A|-------------1-4--6--6-4--4-2--2---------6--6-4--4-----------------------------|
E|2--2-2--2--2-------------------------------------------------------------------|

Intro/Break x3

Verse 2

Chorus

Outro

Intro/Break
Show more