• Song:

    True Colors

  • Artist:

    Cindy Lauper

  • Album:

    The Best Of

-----------------------------------------------------------------------------
			     True Colors - Cyndi Lauper
-----------------------------------------------------------------------------
Tabbed by: maruzzzy
Email:mark_maru4@yahoo.com

Tuning: standard

intro:
chords: Am G C F (2 times)
Riff:
|3-----------------------3-------3---------------------3-------3-|
|--------0-------1-----------------------0-------1---------------|
|----------------------------------------------------------------|
|----------------------------------------------------------------|
|----------------------------------------------------------------|
|----------------------------------------------------------------|

|----------------------------------------------------------------|
|------0---------1-------------------------------0-------1-------|
|------------------------2---------------------------------------|
|----------------------------------------------------------------|
|----------------------------------------------------------------|
|----------------------------------------------------------------|

|3---------------------3-------3-----------------------3-------3-|
|------0---------1---------------------0-------1-----------------|
|----------------------------------------------------------------|
|----------------------------------------------------------------|
|----------------------------------------------------------------|
|----------------------------------------------------------------|

|---------------------------|
|------0-------1------------|
|------------------------2--|
|---------------------------|
|---------------------------|
|---------------------------|

Am              G
You with the sad eyes
C              F9
Don't be discouraged
Dm Dm7   C
Oh I realize
        G
It's hard to take courage
C           Dm
In a world full of people
    C          F
You can lose sight of it all
        Am             G
And the darkness inside you
        F             C
Can make you feel so small

                  F     C
But I see your true colors
    G
Shining through
            F   C
I see your true colors
       F          C
And that's why I love you
Am            Em      G         F
So don't be afraid to let them show
      C    F
Your true colors
  C    F          G
True colors are beautiful,
         F
Like a rainbow

Am G C F (2)

           Am   G
Show me a smile then,
 C          F9     Dm    Dm7
Don't be unhappy, can't remember
 C         G
When I last saw you laughing
C              Dm
If this world makes you crazy
     C                   F
And you've taken all you can bear
     Am     G
You call me up
             F            C
Because you know I'll be there

                  F     C
And I'll see your true colors
    G
Shining through
            F   C
I see your true colors
       F          C
And that's why I love you
Am            Em      G         F
So don't be afraid to let them show
      C    F
Your true colors
  C    F          G
True colors are beautiful,
         F
Like a rainbow
Show more